Tous les tutos

Queen - Killer Queen ( Solo )

Posté le 26 juin 2015 | Rock | 5 248 vues
Killer Queen ( Solo ) - Queen

Retrouvez le Tuto Video sur ma chaîne Youtube : Ipsaous

Paramètres Guitar Rig 5 pour le son
Backing Track ici 


e|-------------------------5--6-----5--------------------------|
B|-8b---8b---8---6s5-------------8-----6---5-------------------|
G|----------------------7----------------------7---------------|
D|-------------------------------------------------------------|
A|-------------------------------------------------------------|
E|-------------------------------------------------------------|

e|---------3---------------3-----------------------------------|
B|-6b--6-------4---3-----------4---6---3---4p3-----------------|
G|---------------------5-------------------------5-------------|
D|-------------------------------------------------------------|
A|-------------------------------------------------------------|
E|-------------------------------------------------------------|

e|-------------------------------------------------------------|
B|----------------------------------------------8---9---10s13--|
G|---------s8----8-------------s8----8----------8---7----------|
D|-s3--3---s8----8---s3----3---s8----8--s3--3---8---9----------|
A|-------------------------------------------------------------|
E|-------------------------------------------------------------|

                                          
e|--------------------------13---13---10h11p10-----------------|
B|-13---13---11h13p11-----------------------------13-----------|
G|----------------------12-------------------------------------|
D|-------------------------------------------------------------|
A|-------------------------------------------------------------|
E|-------------------------------------------------------------|

                                              
e|-------------------------------------------------------------|
B|-13--13--11h13p11------15--15--12h13p12--15p13--16p15--18p16-|
G|-------------------12----------------------------------------|
D|-------------------------------------------------------------|
A|-------------------------------------------------------------|
E|-------------------------------------------------------------|


e|-------------------------------------------------------------|
B|-18b--18--16-18b--16---18br--16----18-------16----18b-18b-18-|
G|--------------------------------16----16-15----15------------|
D|-------------------------------------------------------------|
A|-------------------------------------------------------------|
E|-------------------------------------------------------------|


e|------------------------18----18----18-----------------------|
B|-18b( garder le bend )-----18----18----18b( +1/2 ton )-------|
G|-------------------------------------------------------------|
D|-------------------------------------------------------------|
A|-------------------------------------------------------------|
E|-------------------------------------------------------------|

Donations

Vous appreciez mon travail et voulez me soutenir ?
Vous pouvez me soutenir en faisant un don ;)



Laisser un commentaire