Tous les tutos

Calogero - Un jour au mauvais endroit

Posté le 31 août 2014 | Variété Française | 18 974 vues
Un jour au mauvais endroit - Calogero ( Version acoustique )

Tablature basée sur la version acoustique.

J'ai affiché les différentes rythmiques dans les parties
correspondantes. ( A part pour le refrain car elle revient
plusieurs fois ).

Tempo : 60 à la noire
***************************************
Accords :
---------

Dm : xx0231 ou ( x57765 )
Am : x02210
C : x32010
Em : 022000 ou (x79987 )

Rythmique Refrain :
-------------------

Am / C / Em : B HHBHB HHBH
Dm : B HHBHB HHB HHB BH
***************************************

Intro :
-------

    Dm                            Am
e|--1------0---------------------------0----0--0--0--0-----------------------|
B|----3----------1----0-------1--------1----1--1--1--1-----------------------|
G|------2-----------------2------------2----2--2--2--2-----------------------|
D|--0------0---0----0---0---0----------2----2--2--2--2-----------------------|
A|--------------------------------0----0----0--0--0--0-----------------------|
E|-------------------------------------x----x--x--x--x-----------------------|
                                       B    H  H  B  H
  
   Am									
e|-------0--------0--------0---------0---------------------------------------|
B|---1--------1--------1--------1--------------------------------------------|
G|---------------------------------------------------------------------------|
D|---------------------------------------------------------------------------|
A|-0---0----0---0----0---0----0---0------------------------------------------|
E|---------------------------------------------------------------------------|


Couplet 1 :
-----------

   Am                                   Dm
e|-------0--------0--------0--------0---------0--------0--------0--------0---|
B|---1--------1--------1--------1---------3--------3--------6--------6-------|
G|---------------------------------------------------------------------------|
D|--------------------------------------0---0----0---0----0---0-----0---0----| X4
A|-0---0----0---0----0---0----0---0------------------------------------------|
E|---------------------------------------------------------------------------|


Échirolles centre banlieue sud de Grenoble
Je m'appelle Sofian j'ai 20 ans
Kevin c'est mon pote on est inséparables
J'ai un job, moi je vis simplement

Le soir à Villeneuve, les grands frères et les gosses
Les terrains de foot et la boxe
Qui a eu tort ? La raison du plus fort
Pour un regard en croix je suis mort


Refrain 1:
----------

Am                          C
Toi mon frère, dis-moi pourquoi
                     Em
La vie continue sans moi
                         Dm      
Dis-moi pourquoi j'étais là
                       Am
Un jour au mauvais endroit
 
                   C          
Les cafés, les cinémas
                    Em           
Je n'y retournerai pas
                      Dm         
Ma vie s'est arrêtée là
                       Am ( 1 coup vers le B)
Un jour au mauvais endroit


Couplet 2 : Idem que le 1 
-----------

   Am                                   Dm
e|-------0--------0--------0--------0---------0--------0--------0--------0---|
B|---1--------1--------1--------1---------3--------3--------6--------6-------|
G|---------------------------------------------------------------------------|
D|--------------------------------------0---0----0---0----0---0-----0---0----| X4
A|-0---0----0---0----0---0----0---0------------------------------------------|
E|---------------------------------------------------------------------------|

Dans la violence s'est brisée mon enfance
J'ai perdu l'existence et le sens
Dans les allées du parc Maurice Thorez
On a poignardé ma jeunesse

Qui a mis ça la guerre dans nos quartiers
L'abandon, l'ennui, la télé
Des couteaux de combat dans les mains des gamins
Pour un regard en croix c'est la fin


Refrain 2:
----------

Am                          C
Toi mon frère, dis-moi pourquoi
                     Em
La vie continue sans moi
                         Dm      
Dis-moi pourquoi j'étais là
                       Am
Un jour au mauvais endroit
                    C          
Les cafés, les cinémas
                    Em           
Je n'y retournerai pas
                      Dm Faire ( B HHB )       
Ma vie s'est arrêtée là


    Dm                             Am
e|--1------0-----------------------0----|
B|----3----------1----0-------1----1----|
G|------2-----------------2--------2----|
D|--0------0---0----0---0---0------2----|
A|---------------------------------0----|
E|---------------------------------x----|
    Un    jour   au   mauvais en-droit

Pont :
------

Rythmique : 

******

Am : HBH
C - Em - Dm: B HHBH HBH HBH

******

Instru : Am - C - Em - Dm puis

Am - C - Em - Dm ( Arpèger 1 fois l'accord)

Et c'est parce qu'ils étaient là
Un jour au mauvais endroit
Qu'ailleurs ici ou là-bas


   Dm                              
e|--1------0----------------------|
B|----3----------1----0-------1---|
G|------2-----------------2-------|
D|--0------0---0----0---0---0-----|
A|--------------------------------|
E|--------------------------------|
   Pour nos frères plus jamais ça !

Outro :
-------

Rythmique : 

Am/C/Em : BBBBBBBB X2 
Dm : BBBBBBBB X 3

Am - C - Em(xx9987) - Dm(xx7765) ( Faire 3 fois).

La troisième fois finir sur ça : 

(La rythmique du dernier Dm sera : BBBBBBB ) Ralentir le tempo


    Dm                              Am  
e|--1------0----------------------------0--|
B|----3----------1----0-------1--------1---|
G|------2-----------------2-----------2----|
D|--0------0---0----0---0---0--------2-----|
A|----------------------------------0------|
E|----------------------------------x------|

Donations

Vous appreciez mon travail et voulez me soutenir ?
Vous pouvez me soutenir en faisant un don ;)



Laisser un commentaire