Tous les tutos

Ed Sheeran - I see fire

Posté le 21 juillet 2014 | Pop/Folk | 19 791 vues
I see fire - Ed Sheeran

Capo 6

Accords :
---------

Em : 022000
G : 320033
Dsus2 : xx0230
C : x32010
Am : x02210
Csus2 : x30010
D : xx0232

A capella
----------

Oh, misty eye of the mountain below
Keep careful watch of my brothers' souls
And should the sky be filled with fire and smoke
Keep watching over Durin's son


Intro
-----
1ère partie

e|-------------------------------------------------------------
B|-5---------------------x------3---x--0----x------------------
G|-2h4p2p0-------0--0----x--0h2-----x--0----x------------------
D|----------0h2-----0h2--x--0-------x-------x------------------
A|------------------3----x----------x-------x------------------
E|-0-----------------------------------0-----------------------

2ème partie

e|--------------------------------------------------------------
B|-5----------------0h1---------1----x--0----x------------------
G|-2h4p2p0-------0--0---------0---0--x--0----x------------------
D|----------0h2-----------0h2-----4--x-------x------------------
A|------------------3---3---------5--x-------x------------------
E|-0------------------------------------0-----------------------


Couplet 1
----------

1ère partie :

   Em          G                   Dsus2       C
e----------x-----|---------x-----|-0-------x-----|---------x------
B--0-------x---3-|---------x-----|-3-------x---1-|---------x------
G--0-------x---0-|---------x-----|-2-------x---0-|---------x------
D--2-------x---0-|---------x-----|-0-------x---2-|---------x------
A----------x-----|---------x-----|---------x---3-|---------x------
E--0-------x---3-|---------x-----|---------x-----|---------x------
   1   2   3   4   1   2   3   4   1   2   3   4   1   2   3  4


2ème partie :

    Em          G                   Dsus2       Am
e|----------x-----|---------x-----|-0-------x-----|---------x-----
B|--0-------x---3-|---------x-----|-3-------x---1-|---------x-----
G|--0-------x---0-|---------x-----|-2-------x---2-|---------x-----
D|--2-------x---0-|---------x-----|-0-------x---2-|---------x-----
A|----------x-----|---------x-----|---------x---0-|---------x-----
E|--0-------x---3-|---------x-----|---------x-----|---------x-----
    1   2   3   4   1   2   3   4   1   2   3   4   1   2   3  4


3ème partie :

   Em          G                   Dsus2       C
e----------x-----|---------x-----|-0-------x-----|---------x------
B--0-------x---3-|---------x-----|-3-------x---1-|---------x------
G--0-------x---0-|---------x-----|-2-------x---0-|---------x------
D--2-------x---0-|---------x-----|-0-------x---2-|---------x------
A----------x-----|---------x-----|---------x---3-|---------x------
E--0-------x---3-|---------x-----|---------x-----|---------x------
   1   2   3   4   1   2   3   4   1   2   3   4   1   2   3  4


4ème partie :

    Am          C                   Csus2       
e|----------x-----|---------x-----|---------------|
B|--1-------x---1-|---------x-----|----1----------|
G|--2-------x---0-|---------x-----|---0-----------|
D|--2-------x---2-|---------x-----|--0------------|
A|--0-------x---3-|---------x-----|-3-------------|
E|----------x-----|---------x-----|---------------|
    1   2   3   4   1   2   3   4   1   2   3   4 

Couplet 2
----------

1ère partie :

   Em          G                   Dsus2       C
e----------x-----|---------x-----|-0-------x-----|---------x------
B--0-------x---3-|---------x-----|-3-------x---1-|---------x------
G--0-------x---0-|---------x-----|-2-------x---0-|---------x------
D--2-------x---0-|---------x-----|-0-------x---2-|---------x------
A----------x-----|---------x-----|---------x---3-|---------x------
E--0-------x---3-|---------x-----|---------x-----|---------x------
   1   2   3   4   1   2   3   4   1   2   3   4   1   2   3  4


2ème partie :

    Em          G                   Dsus2       Am
e|----------x-----|---------x-----|-0-------x-----|---------x-----
B|--0-------x---3-|---------x-----|-3-------x---1-|---------x-----
G|--0-------x---0-|---------x-----|-2-------x---2-|---------x-----
D|--2-------x---0-|---------x-----|-0-------x---2-|---------x-----
A|----------x-----|---------x-----|---------x---0-|---------x-----
E|--0-------x---3-|---------x-----|---------x-----|---------x-----
    1   2   3   4   1   2   3   4   1   2   3   4   1   2   3  4


3ème partie :

   Em          G                   Dsus2       C
e----------x-----|---------x-----|-0-------x-----|---------x------
B--0-------x---3-|---------x-----|-3-------x---1-|---------x------
G--0-------x---0-|---------x-----|-2-------x---0-|---------x------
D--2-------x---0-|---------x-----|-0-------x---2-|---------x------
A----------x-----|---------x-----|---------x---3-|---------x------
E--0-------x---3-|---------x-----|---------x-----|---------x------
   1   2   3   4   1   2   3   4   1   2   3   4   1   2   3  4


4ème partie :

    Am          C                   Csus2       Csus2
e|----------x-----|---------x-----|---------x-----|---------x------
B|--1-------x---1-|---------x-----|-1-------x---1-|---------x------
G|--2-------x---0-|---------x-----|-0-------x---0-|---------x------
D|--2-------x---2-|---------x-----|-0-------x---0-|---------x------
A|--0-------x---3-|---------x-----|-3-------x---3-|---------x------
E|----------x-----|---------x-----|---------x-----|---------x------
    1   2   3   4   1   2   3   4   1   2   3   4   1   2   3  4


5ème partie :

    Am          C                   Csus2       
e|----------x-----|---------x-----|---------------|
B|--1-------x---1-|---------x-----|-1-------------|
G|--2-------x---0-|---------x-----|-0-------------|
D|--2-------x---2-|---------x-----|-0-------------|
A|--0-------x---3-|---------x-----|-3-------------|
E|----------x-----|---------x-----|---------------|
    1   2   3   4   1   2   3   4   1   2   3   4 

-----------------------------------------------------------------------
-----------------------------------------------------------------------

Couplet 1
----------
 
               Em      G
If this is to end in fire
        Dsus2              C
Then we should all burn together
          Em          G      Dsus2     Am
Watch the flames climb high into the night
       Em    G            Dsus2     C 
Calling father oh, sent by and we will
              Am             C
Watch the flames burn on and on
         Csus2
The mountain side
 

e|------------------------------------------------
B|-5---------------------x---------x--0----x------
G|-2h4p2p0-------0--0----x--0h2----x--0----x------
D|----------0h2-----0h2--x--0------x-------x------
A|------------------3----x---------x-------x------
E|-0----------------------------------0-----------
 

Couplet 2
---------

                Em         G
And if we should die tonight
                        Dsus2    C
Then we should all die together
                Em    G    Dsus2    Am
Raise a glass of wine for the last time
            Em         G
Calling out for the rope
Dsus2          C
Prepare as we will
               Am            C    
Watch the flames burn on and on
        Csus2    Csus2
The mountain side
       Am    C           Csus2
Desolation comes upon the sky
 

Refrain 1
-----------------------------
Rythmique : 
Coup entre () est étouffé


Em : B H(B)H 
C : B HBHB BH
D : B H(B)H
Em : B HBHB BH
-----------------------------

           Em     C       D      Em
Now I see fire, inside the mountain
      Em     C     D        Em
I see fire, burning the trees
      Em    C     D          Em
And I see fire, hollowing souls
      Em    C      D           Am
And I see fire, blood in the breeze
And I hope that you remember me


e|-------------------------------------------------------------
B|-5---------------------x------3---x--0----x------------------
G|-2h4p2p0-------0--0----x--0h2-----x--0----x------------------
D|----------0h2-----0h2--x--0-------x-------x------------------
A|------------------3----x----------x-------x------------------
E|-0-----------------------------------0-----------------------

e|--------------------------------------------------------------
B|-5----------------0h1---------1----x--0----x------------------
G|-2h4p2p0-------0--0---------0---0--x--0----x------------------
D|----------0h2-----------0h2-----4--x-------x------------------
A|------------------3---3---------5--x-------x------------------
E|-0------------------------------------0-----------------------


Couplet 3 ( idem couplet 2 )
-----------------------------

             Em      G
Oh, should my people fall in
     Dsus2           C
Surely I'll do the same
            Em           G
Come finding mountain holes
          Dsus2           Am
We got too close to the flame
         Em      G
Calling out father oh
Dsus2              C
Hold fast and we will
            Am               C           
Watch the flames burn on and on
       Csus2     Csus2
The mountain side
      Am       C           Csus2
Desolation comes upon the sky


Refrain 2 ( idem refrain 1 )
---------------------------- 
          Em     C       D      Em
Now I see fire, inside the mountain
      Em     C     D       Em
I see fire, burning the trees
      Em    C     D          Em
And I see fire, hollowing souls
       Em    C      D            Am
And I see fire, blood in the breeze
And I hope that you remember me 


Pont :
------
(Même rythmique que pour le refrain)

Puis finir sur Am ( 8*B )
C ( 4*B ) et D ( 4*B 

              Am        Em
And if the night is burning
       G           D
I will cover my eyes
          Am           Em
For if the dark returns then
    G             D
My brothers will die
           Am            Em
And as the sky's falling down
               G             D
It crashed into this lonely town
                     Am
And with that shadow upon the ground
  C                        D
I hear my people screaming out


Refrain 3 :
----------- 

          Em    C        D      Em
Now I see fire, inside the mountain
      Em     C     D      Em
I see fire, burning the trees
          Em    C     D      Em
And I see fire, hollowing souls
          Em    C   D            Em
And I see fire, blood in the breeze
 
        Em  C                            D    Em
I see fire    (oh you know I saw a city burn) fire
        Em  C                           D  Em
I see fire   (feel the heat upon my skin) fire
        Em  C              D     Em
I see fire   (Oooohh) fire
               Em         C       D              Em
And I see fire burn on and on and the mountains high

Donations

Vous appreciez mon travail et voulez me soutenir ?
Vous pouvez me soutenir en faisant un don ;)



Laisser un commentaire