Tous les tutos

Incubus - Drive

Posté le 11 décembre 2019 | Pop/Rock | 1 559 vues
Drive - Incubus

Tempo ~ 90 bpm

Riff 1 ( Intro / Couplets / Refrains )
------

E |--------------0--------0--x--x----------------------|
B |--------------8--------8--x--x--------7-------------|
G |--------------0--------0--x--x--------7-------------|
D |--------9-----9-----------x--x--------5-----0--0----|
A |--------------------------------7-------------------|
E |--0-------------------------------------------------|


E |--------------0--------0--x--x----------------------||
B |--------------5--------5--x--x--------5-----5--x----||
G |--------------4--------4--x--x--------0-----0--x----||
D |--------5-----5--------5--x--x--------5-----5--x----||
A |--3-----------------------------------x-----x--x----||
E |--------------------------------5-------------------||


Riff 2 ( Pré-refrains )
------

E ||-------------0--------0--0-----0-------------------|
B ||-------------5--------5--5-----5-----x-------------|
G ||*------------4--------4--4-----4-----x-----0-------|
D ||*------------5--------5--5-----5-----x-----2-------|
A ||-3-----------------------------------------0-------|
E ||---------------------------------------------------|


E |--------------0------------------------------------||
B |--------------2-----------2p-0--0--0--2p-0--0--0---||
G |--------------0-----------0--0--0--0--0--0--0--0--*||
D |--------------2-----------2--2--2--2--2--2--2--2--*|| Répéter 3 fois
A |--------0------------------------------------------||
E |---------------------------------------------------||


E |--------------0--------0--0-----0-----------0-------|
B |--------------5--------5--5-----5-----------2-------|
G |--------------4--------4--4-----4-----------0-------|
D |--------------5--------5--5-----5-----------2-------|
A |--3-----------------------------------0-----0-------|
E |----------------------------------------------------|


E |----------------------------||
B |-----------------2--2--2----||
G |-----------------0--0--0----||
D |-----------2--2--2--2--2----||
A |-----------0--0--0--0--0----||


Donations

Vous appreciez mon travail et voulez me soutenir ?
Vous pouvez me soutenir en faisant un don ;)



Laisser un commentaire