Tous les tutos

Guns N' Roses - Don’t Cry

Posté le | Solo | 1 798 vues

Tablature du solo de Don’t Cry des Guns N’ Roses

Don't Cry - Guns N' Roses

Vous trouverez le Backing Track utilisé dans la démo ici : Don't cry 

Solo 

e|------------------------------------------------------------------------------|
B|----------------------------8---------------8---------------------------------|
G|-7b9r7p5--7---7b9r7p5--7b9-----7b9r7p5--7b9----b9r7-5-------------------------|
D|-------------------------------------------------------7-5--------------------|
A|------------------------------------------------------------5b7r5--3----------|
E|------------------------------------------------------------------------------|

e|------------------------------------------------------------------------------|
B|-------------------------------------------------15b17--13~-------------------|
G|-7s9---9s10---10s12---12s14---------------12-14-------------------------------|
D|-x-x---x-x----x--x----x--x----------12-14-------------------------------------|
A|-5s7---7s8----8s10----10s12---12-15-------------------------------------------|
E|------------------------------------------------------------------------------|

e|------------------------------------------------------------------------------|
B|------------------------------------------------------------------------------|
G|-14---12----------------------------------------------------------------------|
D|---------14-13h14p13p12-13p12s10--12p10----10---------------------------------|
A|----------------------------------------12----12p10--12-----------------------|
E|------------------------------------------------------------------------------|

e|-------15-15-15-----------------15-15-----------------------------------------|
B|-15b17----------17r15-13--15b17-------17r15-13-12-----------------------------|
G|------------------------------------------------------------------------------|
D|------------------------------------------------------------------------------|
A|------------------------------------------------------------------------------|
E|------------------------------------------------------------------------------|

e|--------------------------------13--------------------------------------------|
B|-------12-13s15-13-12-13----------13--15b17-15--------------------------------|
G|----13-------------------14---------------------------------------------------|
D|-14-------------------------15------------------------------------------------|
A|------------------------------------------------------------------------------|
E|------------------------------------------------------------------------------|

e|-----------------5------------------------------------------------------------|
B|-15b17--13--8b10---8p5-----------7b9------------------------------------------|
G|-----------------------7b9r7p5---7b9------------------------------------------|
D|------------------------------------------------------------------------------|
A|------------------------------------------------------------------------------|
E|------------------------------------------------------------------------------|


Laisser un commentaire