Tous les tutos

Stephan Eicher - Déjeuner en paix

Posté le 21 juillet 2014 | Variété Française | 20 500 vues
Déjeuner en paix - Stephan Eicher

Capo 2 

*************************************************

Accords :

Am : x02210
F : 1x3010 et 133211 ou encore x33210
G : 320003
E : 022100
C : x32010
C/B : x20010

Rythmique couplet :
-------------------

B HBB HBB BH

Sur la séquence Am - C/B - C - C/B :

B B BH

Rythmique Refrain :
-------------------

BBB H(B)B HBH

**************************************************

Intro :
-------


   Am                 F
e||-----------------------------------------
B||--------0-1-0--------------1-------------
G||*-----2-------2-0--------0-----0---0-----
D||*---2------------------3---------3-------
A||--0--------------------------------------
E||---------------------1-------------------

   G                  E
e|-------------------------------------------||
B|-------1--------------------0--------------||
G|-----0-----0---0----------1---2---2-------*||
D|---0---------0----------2-------2---2-----*|| X 2
A|-------------------------------------------||
E|-3------------------0----------------------||


Couplet 1 :
-----------

   Am                  F
e||------------------------------------------
B||--------0h1-----------------1-------------
G||*-----2-----2---2---------0-------0---0---
D||*---2---------2---------3-----------3-----
A||--0---------------------------------------
E||----------------------1-------------------

   G                   E
e|------------------------------------------||
B|-------0--------------------0-------------||
G|-----0-----0---0----------1-----1---1----*||
D|---0---------0----------2---------2------*|| X 2 puis
A|------------------------------------------||
E|-3-------------------0--------------------||
				
   F                   G
e|---------------------------------------------
B|-------1-------------------0-----------------
G|-----0-----0---0---------0-----0---0---------
D|---3---------3---------0---------0-----------
A|---------------------------------------------
E|-1-------------------3-----------------------

   Am       C/B      C        C/B
e|---------------------------------------------
B|-------1--------1--------1--------1----------
G|-----2--------0--------0--------0------------
D|---2--------0--------2--------0--------------
A|-0--------2--------3--------2----------------
E|---------------------------------------------

   F                   G
e|---------------------------------------------
B|-------1-------------------0-----------------
G|-----0-----0---0---------0-------------------
D|---3---------3---------0---------------------
A|---------------------------------------------
E|-1-------------------3-----------------------


Couplet 1 :
-----------

Am                                F 
 J'abandonne sur une chaise le journal du matin
          G                                   E 
 Les nouvelles sont mauvaises d'où qu'elles viennent
      Am                             F 
 J'attends qu'elle se réveille et qu'elle se lève enfin
     G                                      E 
 Je souffle sur les braises pour qu'elles prennent
 

       F                  G 
 Cette fois je ne lui annoncerai pas
         Am - C/B - C - C/B
 La dernière hécatombe
     F                    G 
 Je garderai pour moi ce que m'inspire le monde
            
 Elle m'a dit qu'elle voulait si je le permettais


Refrain 1 :
-----------

                Am    F  G E
 Déjeuner en paix,
                Am    F  G E
 Déjeuner en paix

Couplet 2 :
-----------

 Je vais à la fenêtre et le ciel ce matin
 N'est ni rose ni honnête pour la peine
 Est-ce que tout va si mal ? Est-ce que rien ne va bien ?
 L'homme est un animal me dit-elle

 Elle prend son café en riant
 Elle me regarde à peine
 Plus rien ne la surprend sur la nature humaine
 C'est pourquoi elle voudrait enfin si je le permets
 

Refrain 2 :
-----------

Am - F - G - E ( 4 fois la séquence )

Déjeuner en paix, déjeuner en paix


Couplet 3 :
-----------

 Je regarde sur la chaise le journal du matin
 Les nouvelles sont mauvaises d'où qu'elles viennent
 Crois-tu qu'il va neiger ?  me demande-t-elle soudain
                          E ( 4 fois )
 Me feras-tu un bébé pour Noël ?

 Et elle prend son café en riant
 Elle me regarde à peine
 Plus rien ne la surprend sur la nature humaine
 C'est pourquoi elle voudrait enfin si je le permets


Refrain 3 : 
-----------

On recommence la séquence Am - F - G - E jusqu'à la fin

 Déjeuner en paix, déjeuner en paix

Donations

Vous appreciez mon travail et voulez me soutenir ?
Vous pouvez me soutenir en faisant un don ;)



Laisser un commentaire