Tous les tutos

Queen - Crazy little thing called love ( Solo )

Posté le 21 juillet 2014 | Solo | 5 221 vues
Crazy little thing called love - Queen

Voici l'adresse pour prendre le backtrack que j'ai utilisé
dans la démo :

http://www.guitarbackingtrack.com/play/queen/crazy_little_thing_called_love_(2).htm

Solo

e|-9s10--10--10--10--10--10--10---------10-------------------------------13--
B|-9s10--10--10--10--10--10------13b15------(13)b15r13p11--13--11--13b15-----
G|---------------------------------------------------------------------------
D|---------------------------------------------------------------------------
A|---------------------------------------------------------------------------
E|---------------------------------------------------------------------------


e|-9s10--10--10--10---------------------------10--10----------------------
B|-9s10--10--10--10--12--10------------10h12--10--10----------------------
G|-------------------12-----11--10h11-------------------------------------
D|------------------------------------------------------------------------
A|------------------------------------------------------------------------
E|------------------------------------------------------------------------


e|--------13----------13-------------------------------13-----------------
B|-13b15-----(13)b15------(13)b15r13p11--13--11--13b15--------------------
G|------------------------------------------------------------------------
D|------------------------------------------------------------------------
A|------------------------------------------------------------------------
E|------------------------------------------------------------------------


e|-11s12--12-----12------------------------------------------------------
B|-11s12--12--15----14---------------------------------------------------
G|---------------------14--11----14--14--(16)b17r16p14--16--14-----------
D|----------------------------14-----------------------------------------
A|-----------------------------------------------------------------------
E|-----------------------------------------------------------------------


Donations

Vous appreciez mon travail et voulez me soutenir ?
Vous pouvez me soutenir en faisant un don ;)



Laisser un commentaire