Tous les tutos

Pink - Cover Me In Sunshine

Posté le 5 août 2021 | Pop/Rock | 7 322 vues
Cover Me In Sunshine - Pink

Tempo ~160bpm

Capo 3

[Rythmique]

A faire sur 2 accords 
( Sauf sur l'interlude ou on jouera 
la rythmique complète sur le A vu qu'on ne joue pas le D )

B (B) B BH HB BHBH 

Exemple:
--------
Em: B (B) B B 
G : HHB BHBH
D : B (B) B B 
A : HHB BHBH


[Intro]
  Dsus2              Dmaj7             Dsus2             Dmaj7
e|----------0-------|---------2-------|---------0-------|---------2-------|
B|----3---3---3---3-|---2---2---2---2-|---3---3---3---3-|---2---2---2---2-|
G|------2-------2---|-----2-------2---|-----2-------2---|-----2-------2---|
D|--0---------------|-0---------------|-0---------------|-0---------------|
A|------------------|-----------------|-----------------|-----------------|
E|------------------|-----------------|-----------------|-----------------|
 
[Couplet 1]
  Dsus2              Dmaj7             Dsus2             Dmaj7
e|----------0-------|---------2-------|---------0-------|---------2-------|
B|----3---3---3---3-|---2---2---2---2-|---3---3---3---3-|---2---2---2---2-|
G|------2-------2---|-----2-------2---|-----2-------2---|-----2-------2---|
D|--0---------------|-0---------------|-0---------------|-0---------------|
A|------------------|-----------------|-----------------|-----------------|
E|------------------|-----------------|-----------------|-----------------|
   I've been dreaming                 of friendly faces
 
  G                 G                 Dsus2             Dmaj7
e|-----------------|-----------------|---------0-------|---------2-------|
B|---------0-------|-2---0-----------|---3---3---3---3-|---2---2---2---2-|
G|---0---0---0---0-|-----------------|-----2-------2---|-----2-------2---|
D|-----0-------0---|-----------------|-0---------------|-0---------------|
A|-----------------|-----------------|-----------------|-----------------|
E|-3---------------|-----------------|-----------------|-----------------|
  I got so much time                  to kill
 
  Dsus2              Dmaj7             Dsus2              Dmaj7
e|----------0-------|---------2-------|---------0-------|---------2-------|
B|----3---3---3---3-|---2---2---2---2-|---3---3---3---3-|---2---2---2---2-|
G|------2-------2---|-----2-------2---|-----2-------2---|-----2-------2---|
D|--0---------------|-0---------------|-0---------------|-0---------------|
A|------------------|-----------------|-----------------|-----------------|
E|------------------|-----------------|-----------------|-----------------|
  Just imagine                     people laughing
 
  G                 G                 Dsus2
e|-----------------|-----------------|---------0-------|---------0-------|
B|---------0-------|-2---0-----------|---3---3---3---3-|---3---3---3---3-|
G|---0---0---0---0-|-----------------|-----2-------2---|-----2-------2---|
D|-----0-------0---|-----------------|-0---------------|-0---------------|
A|-----------------|-----------------|-----------------|-----------------|
E|-3---------------|-----------------|-----------------|-----------------|
   I know         some day             we will

  G                  G                 A7
e|-----------------|-----------------|-----------------|-----------------|
B|---------0-------|---------0-------|---------2-------|-2---------------|
G|---0---0---0---0-|---0---0---0---0-|---0---0---0---0-|-----------------|
D|-----0-------0---|-----0-------0---|-----2-------2---|-----------------|
A|-----------------|-----------------|-0---------------|-----------------|
E|-3---------------|-3---------------|-----------------|-----------------|
    And even if it's far away          Give me through another day
 
[Refrain]
            Em      G
Cover me in sunshine
               D         A
Shower me with good times
                 Em                    G
Tell me that the world’s been spinning since the beginning
    D                     A
And everything will be alright
            Em      G
Cover me in sunshine
 
[Couplet 2]
                                 Dsus2               Dmaj7
                                e|----------0-------|---------2-------|
                                B|----3---3---3---3-|---2---2---2---2-|
                                G|------2-------2---|-----2-------2---|
                                D|--0---------------|-0---------------|
                                A|------------------|-----------------|
                                E|------------------|-----------------|
 From a distance                 all these mountains
 
  G                 G                 Dsus2             Dmaj7
e|-----------------|-----------------|---------0-------|---------2-------|
B|---------0-------|-2---0-----------|---3---3---3---3-|---2---2---2---2-|
G|---0---0---0---0-|-----------------|-----2-------2---|-----2-------2---|
D|-----0-------0---|-----------------|-0---------------|-0---------------|
A|-----------------|-----------------|-----------------|-----------------|
E|-3---------------|-----------------|-----------------|-----------------|
        are     just some                tiny hills
 
  Dsus2              Dmaj7             Dsus2             Dmaj7
e|----------0-------|---------2-------|---------0-------|---------2-------|
B|----3---3---3---3-|---2---2---2---2-|---3---3---3---3-|---2---2---2---2-|
G|------2-------2---|-----2-------2---|-----2-------2---|-----2-------2---|
D|--0---------------|-0---------------|-0---------------|-0---------------|
A|------------------|-----------------|-----------------|-----------------|
E|------------------|-----------------|-----------------|-----------------|
       Wild-         flowers           they keep living
 
  G                 G                 Dsus2
e|-----------------|-----------------|---------0-------|---------0-------|
B|---------0-------|-2---0-----------|---3---3---3---3-|---3---3---3---3-|
G|---0---0---0---0-|-----------------|-----2-------2---|-----2-------2---|
D|-----0-------0---|-----------------|-0---------------|-0---------------|
A|-----------------|-----------------|-----------------|-----------------|
E|-3---------------|-----------------|-----------------|-----------------|
    while they’re      just standing       still
 
  G                  G                 A7
e|-----------------|-----------------|-----------------|-----------------|
B|---------0-------|---------0-------|---------2-------|-2---------------|
G|---0---0---0---0-|---0---0---0---0-|---0---0---0---0-|-----------------|
D|-----0-------0---|-----0-------0---|-----2-------2---|-----------------|
A|-----------------|-----------------|-0---------------|-----------------|
E|-3---------------|-3---------------|-----------------|-----------------|
   I've been missing yesterday     But what if there's a better place
 
[Refrain]
            Em      G
Cover me in sunshine
               D         A
Shower me with good times
                 Em                    G
Tell me that the world’s been spinning since the beginning
    D                     A
And everything will be alright
            Em      G
Cover me in sunshine
               D         A
Shower me with good times
                 Em                    G
Tell me that the world’s been spinning since the beginning
    D                     A
And everything will be alright
            Em      G    A7
Cover me in sunshine
 
  A7
e|-----------------|-----------------|
B|---------2-------|-2---------------|
G|---0---0---0---0-|-----------------|
D|-----2-------2---|-----------------|
A|-0---------------|-----------------|
E|-----------------|-----------------|
 
[Interlude]
      Em G       D A         Em G   A7
La-la-la-aah, aah             La-la-la-aah

  A7
e|-----------------|-----------------|
B|---------2-------|-2---------------|
G|---0---0---0---0-|-----------------|
D|-----2-------2---|-----------------|
A|-0---------------|-----------------|
E|-----------------|-----------------|
 
[Refrain]
            Em      G
Cover me in sunshine
               D         A
Shower me with good times
                 Em                    G
Tell me that the world’s been spinning since the beginning
    D                     A
And everything will be alright
            Em      G
Cover me in sunshine

Donations

Vous appreciez mon travail et voulez me soutenir ?
Vous pouvez me soutenir en faisant un don ;)



Laisser un commentaire