Tous les tutos

Francis Cabrel - La corrida

Posté le 21 juillet 2014 | Variété Française | 47 030 vues
La corrida - Francis Cabrel

********************************************
Accords :
---------
Dm : xx0231
F : 132211
C : x32010
Bbsus2 : x13311
Csus2 : x35533 
Dsus2 : xx0230
Dsus4 : xx0233
A : x02220
Asus4 : x02230
Asus2 : x02200


Rythmique Globale :
-------------------

les coups entre parenthèse sont étouffés

B H(BH)B H(BH)B BH

Rythmique Pont :

Séquence Dm/Dsus2/Dsus4/Dm :

Dm : B HBH
Dsus2: B HBHB BH
Dsus4: B HBH
Dm: B HBHB BH

Séquence Asus4/A/Asus4/A/Asus2/A :

Asus4 : B HBH
A : B HBHB BH
Asus 4 : B HBH
A : B HBHB BH
Asus 2 : B HBH
A : B HBHB BH

********************************************

**Chanson

Intro : Arpéger 1 fois l'accord
-------			   

Dm
	Dm			  
Depuis le temps que je patiente
        F
Dans cette chambre noire
        C
J'entends qu'on s'amuse et qu'on chante
        Bbsus2
Au bout du couloir
        Dm
Quelqu'un à touché le verrou
        F
Et j'ai plongé vers le grand jour
        C
J'ai vu les fanfares, les barrières
        Bbsus2
Et les gens autour

Dm - F - C - Bbsus2

2eme guitare : A faire 1 fois avant d'attaquer le couplet 1
-------------

e||------------------------------------||
B||-s10-8-6-8-6-s10-8-6-5----s8-6-5----||
G||---------------------------------7--||
D||------------------------------------||
A||------------------------------------||
E||------------------------------------||
	
     
Couplet 1 :
-----------

       Dm
Dans les premiers moments, j'ai cru
       F
Qu'il fallait seul'ment se défendre
       C
Mais cette place est sans issue
       Bbsus2
Je commence à comprendre
       Dm
Ils ont refermé derrière moi
       F
Ils ont eu peur que je recule
       C
Je vais bien finir par l'avoir
       Bbsus2
Cette danseuse ridicule

Refrain :
---------

Dm
F                       C         Bbsus2   
Est-ce que ce monde est sérieux ?
Dm
F                       C         Bbsus2  
Est-ce que ce monde est sérieux ?

**2ème guitare

e||------------------------------------||
B||-s10-8-6-8-6-s10-8-6-5----s8-6-5----||
G||---------------------------------7--||
D||------------------------------------|| X2
A||------------------------------------||
E||------------------------------------||


Couplet 2 : Idem couplet 1
-----------

       Dm
Andalousie, je me souviens
             F
Les prairies bordées de cactus
              C
Je n'vais pas trembler devant ce pantin
   Bbsus2
Ce minus !
               Dm
Je vais l'attraper, lui et son chapeau
          F
Les faire tourner comme un soleil
           C
Ce soir la femme du torero
        Bbsus2
Dormira sur ses deux oreilles

Refrain 2 :
----------

Dm
F                       C         Bbsus2   
Est-ce que ce monde est sérieux ?
Dm
F                       C         Bbsus2  
Est-ce que ce monde est sérieux ?


**2eme guitare

e||------------------------------------||
B||-s10-8-6-8-6-s10-8-6-5----s8-6-5----||
G||---------------------------------7--||
D||------------------------------------||X2
A||------------------------------------||
E||------------------------------------||

Pont :
------

Bbsus2                      Csus2
J'en ai poursuivi des fantômes
        Dm          Dsus2   Dsus4 Dm
Presque touché leurs ballerines
            Bbsus2
Ils ont frappé fort dans mon cou
        Asus4      A   Asus4  A  Asus2 A
Pour que je m'incline
        Bbsus2   
Ils sortent d'où ces acrobates
Csus2                  Dm     Dsus2   Dsus4 Dm
Avec leurs costumes de papier
                Bbsus2
J'ai jamais appris à me battre
                   Csus2
Contre des poupées

Bbsus2   Csus2

Interlude : Idem que l'intro
-----------

Dm   F   C   Bbsus2  

**2ème guitare

e||------------------------------------||
B||-s10-8-6-8-6-s10-8-6-5----s8-6-5----||
G||---------------------------------7--||
D||------------------------------------||
A||------------------------------------||
E||------------------------------------||
	
Couplet 3 :
-----------

          Dm
Sentir le sable sous ma tête
      F
C'est fou comme ça peut faire du bien
     C
J'ai prié pour que tout s'arrête
       Bbsus2             Bbsus2
Andalousie, je me souviens

               Dm
Je les entends rire comme je râle
            F
Je les vois danser comme je succombe
           C
Je pensais pas qu'on puisse autant
     Bbsus2                 Bbsus2
S'amuser autour d'une tombe

Refrain :
---------

Dm
F                       C         Bbsus2   
Est-ce que ce monde est sérieux ?
Dm
F                       C         Bbsus2  
Est-ce que ce monde est sérieux ?

**2ème guitare

e||------------------------------------||
B||-s10-8-6-8-6-s10-8-6-5----s8-6-5----||
G||---------------------------------7--||
D||------------------------------------|| jusqu'a la fin :D
A||------------------------------------||
E||------------------------------------||


Outro : ( On joue pareil que le refrain )
-------

si si
hombre, hombre
baila baila
hay que bailar de nuevo
y mataremos otros
otras vidas y otros toros
y mataremos otros
venga venga bailamos
hay que bailar de nuevo

Donations

Vous appreciez mon travail et voulez me soutenir ?
Vous pouvez me soutenir en faisant un don ;)



Laisser un commentaire