Tous les tutos

Cocoon - Cliffhanger

Posté le 10 octobre 2009 | Pop/Folk | 1 858 vues

Description


SITE : http://www.ipsacoustic.fr
COURS DE GRATTE : http://www.coursdegratte.com
FACEBOOK : http://www.facebook.com/pages/Guitare-Acoustique/2[…]7406105437

Salut ;). Une chansons que j'trouve vraiment sympa !!

Pour la tab :

Capo III

| | | | | | | |
|------------0---------------0---|------------0---------------0---|
|--------0---------------0-------|--------0---------------0-------|
|----4---------------4-----------|----4---------------4-----------|
|----------------2---------------|----------------2---------------|
|--------------------------------|--------------------------------|
|0-------------------------------|0-------------------------------|

| | | | | | | |
|------------0---------------0---|--------------------0-------0---|
|--------0---------------0-------|----0-------0-------------------|
|----4---------------4-----------|----------------0-------2-------|
|----------------2---------------|2-------4-----------------------|
|--------------------------------|--------------------------------|
|0-------------------------------|--------------------------------|

| | | | | | | |
|------------0---------------0---|------------0---------------0---|
|--------0---------------0-------|--------0---------------0-------|
|----4---------------4-----------|----4---------------4-----------|
|----------------2---------------|----------------2---------------|
|--------------------------------|--------------------------------|
|0-------------------------------|0-------------------------------|

| | | | | | | |
|------------0---------------0---|--------------------0-------0---|
|--------0---------------0-------|----0-------0-------------------|
|----4---------------4-----------|----------------0-------2-------|
|----------------2---------------|2-------4-----------------------|
|--------------------------------|--------------------------------|
|0-------------------------------|--------------------------------|

| | | | | | | |
|------------0---------------0---|------------0---------------0---|
|--------1---------------1-------|--------1---------------1-------|
|----4---------------4-----------|----4---------------4-----------|
|----------------2---------------|----------------2---------------|
|0-------------------------------|0-------------------------------|
|--------------------------------|--------------------------------|

| | | | | | | |
|------------0---------------0---|------------0---------------0---|
|----3---------------3-----------|----3---------------3-----------|
|--------0---------------0-------|--------0---------------0-------|
|----------------4---------------|----------------4---------------|
|2-------------------------------|2-------------------------------|
|--------------------------------|--------------------------------|

| | | | | | | |
|--------------------------------|--------------------------------|
|----1-------1-------1-------1---|----1-------1-------1-------1---|
|--------------------------------|0-------------------------------|
|--------0-------2-------4-------|--------4-------2-------0-------|
|3-------------------------------|--------------------------------|
|--------------------------------|--------------------------------|

| | | | | | | |
|------------0---------------0---|------------0---------------0---|
|----3---------------3-----------|----3---------------3-----------|
|--------0---------------0-------|--------0---------------0-------|
|----------------4---------------|----------------4---------------|
|2-------------------------------|2-------------------------------|
|--------------------------------|--------------------------------|

| | | |
|------------0---------------0---|
|--------0---------------0-------|
|----4---------------4-----------|
|----------------2---------------|
|--------------------------------|
|0-------------------------------|

@++ et bonne gratte ;).

Donations

Vous appreciez mon travail et voulez me soutenir ?
Vous pouvez me soutenir en faisant un don ;)



Laisser un commentaire