Tous les tutos

Fréro Delavega - Le chant des sirènes

Posté le | Variété Française | 11 492 vues
Le chant des sirènes - Fréro Delavega

Capo 6ème case ( Version studio en capo 7 )

Tempo : ~ 120

Intro : 
-------

     Dm          Am        G
e||------1--x-------0--x-----3--x------3--x-----||
B||------3--x-------1--x-----3--x------3--x-----||
G||*-----2--x-------2--x-----0--x------0--x----*||
D||*-0--------0----------0---------0-----------*||X4
A||----0---------0-------------------2----------||
E||------------------------3--------------------||

Couplet 1 :
----------

     Dm          Am        G
e||------1--x-------0--x-----3--x------3--x-----||
B||------3--x-------1--x-----3--x------3--x-----||
G||*-----2--x-------2--x-----0--x------0--x----*||
D||*-0--------0----------0---------0-----------*||X4
A||----0---------0-------------------2----------||
E||------------------------3--------------------||

     F                 Am              C                G         
e||------1-x-----1-x-----0-x-----0-x-----0-x------0-x-----3-x------3-x--------||
B||------1-x-----1-x-----1-x-----1-x-----1-x------1-x-----3-x------3-x--------||
G||*-----2-x-----2-x-----2-x-----2-x-----0-x------0-x-----0-x------0-x-------*||
D||*-0-------3-------0-------2-------0--------2-------0--------0-------------*||X2
A||----3-------3-------0-------0-------3--------3----------------2------------||
E||-----------------------------------------------------3---------------------||

Refrain 1 :
-----------

     Dm                 Am              C                G
e||------1-x-----1-x-----0-x-----0-x------0-x------0-x-----3-x------3-x-------||
B||------3-x-----3-x-----1-x-----1-x------1-x------1-x-----3-x------3-x-------||
G||*-----2-x-----2-x-----2-x-----2-x------0-x------0-x-----0-x------0-x------*||
D||*-0-------0-------0-------2--------0--------2-------0--------0------------*||X2
A||----0-------0-------0-------0--------3--------3----------------2-----------||
E||------------------------------------------------------3--------------------||


Interlude 1 :
------------

     Dm          Am        G
e||------1--x-------0--x-----3--x------3--x-----||
B||------3--x-------1--x-----3--x------3--x-----||
G||*-----2--x-------2--x-----0--x------0--x----*||
D||*-0--------0----------0---------0-----------*||X2
A||----0---------0-------------------2----------||
E||------------------------3--------------------||


Couplet 2 :
-----------

     Dm          Am        G
e||------1--x-------0--x-----3--x------3--x-----||
B||------3--x-------1--x-----3--x------3--x-----||
G||*-----2--x-------2--x-----0--x------0--x----*||
D||*-0--------0----------0---------0-----------*||X4
A||----0---------0-------------------2----------||
E||------------------------3--------------------||

     F                 Am              C                G         
e||------1-x-----1-x-----0-x-----0-x-----0-x------0-x-----3-x------3-x--------||
B||------1-x-----1-x-----1-x-----1-x-----1-x------1-x-----3-x------3-x--------||
G||*-----2-x-----2-x-----2-x-----2-x-----0-x------0-x-----0-x------0-x-------*||
D||*-0-------3-------0-------2-------0--------2-------0--------0-------------*||X2
A||----3-------3-------0-------0-------3--------3----------------2------------||
E||-----------------------------------------------------3---------------------||

Refrain 2 :
-----------

     Dm                 Am              C                G
e||------1-x-----1-x-----0-x-----0-x------0-x------0-x-----3-x------3-x-------||
B||------3-x-----3-x-----1-x-----1-x------1-x------1-x-----3-x------3-x-------||
G||*-----2-x-----2-x-----2-x-----2-x------0-x------0-x-----0-x------0-x------*||
D||*-0-------0-------0-------2--------0--------2-------0--------0------------*||X2
A||----0-------0-------0-------0--------3--------3----------------2-----------||
E||------------------------------------------------------3--------------------||

Interlude 2 :
------------

     F                 Am              C                G         
e||------1-x-----1-x-----0-x-----0-x-----0-x------0-x-----3-x------3-x--------||
B||------1-x-----1-x-----1-x-----1-x-----1-x------1-x-----3-x------3-x--------||
G||*-----2-x-----2-x-----2-x-----2-x-----0-x------0-x-----0-x------0-x-------*||
D||*-0-------3-------0-------2-------0--------2-------0--------0-------------*||X2
A||----3-------3-------0-------0-------3--------3----------------2------------||
E||-----------------------------------------------------3---------------------||

Refrain 3 :
-----------

Arpèger les accords Dm / Am / C / G (  Répéter 2 fois  )

Refrain 4 :
-----------

     Dm                 Am              C                G
e||------1-x-----1-x-----0-x-----0-x------0-x------0-x-----3-x------3-x-------||
B||------3-x-----3-x-----1-x-----1-x------1-x------1-x-----3-x------3-x-------||
G||*-----2-x-----2-x-----2-x-----2-x------0-x------0-x-----0-x------0-x------*||
D||*-0-------0-------0-------2--------0--------2-------0--------0------------*||X2
A||----0-------0-------0-------0--------3--------3----------------2-----------||
E||------------------------------------------------------3--------------------||

Outro :
-------

     Dm          Am        G
e||------1--x-------0--x-----3--x------3--x-----||
B||------3--x-------1--x-----3--x------3--x-----||
G||*-----2--x-------2--x-----0--x------0--x----*||
D||*-0--------0----------0---------0-----------*||X4
A||----0---------0-------------------2----------||
E||------------------------3--------------------||

**********************
Chanson :

Couplet 1 :
-----------

Dm                     Am              G       
	Enfants des parcs, gamins des plages
Dm                 Am                  G
	Le vent menace les châteaux de sable façonner de mes doigts
Dm                  Am                  G
	Le temps n'épargne personne hélas
Dm                  Am                  G 
	Les années passent, l'écho s'évade sur la Dune du Pyla
F                 Am           C              G
Au gré des saisons, des photomatons, je m'abandonne à ces lueurs d'autrefois
F                 Am          C              G
Au gré des saisons, des décisions, je m'abandonne

Refrain 1 :
-----------

Dm                      Am                    C                    
Quand les souvenir s'en mêlent, les larmes me viennent, 
                   G
et le chant des sirènes me replonge en hiver 
Dm               Am                C                  G
Oh mélancolie cruelle, harmonie fluette, euphorie solitaire

**** Interlude 1 ****

Couplet 2 :
-----------
Combien de farces, combien de frasques
Combien de traces, combien de masques
Avons-nous laissé là-bas
Poser les armes, prendre le large
Trouver le calme dans ce vacarme avant que je ne m'y noie

Au gré des saisons, des photomatons, je m'abandonne à ces lueurs d'autrefois
Au gré des saisons, des décisions, je m'abandonne 

Refrain 2 :
-----------

Dm                      Am                    C                    
Quand les souvenir s'en mêlent, les larmes me viennent, 
                   G
et le chant des sirènes me replonge en hiver 
Dm               Am                C                  G
Oh mélancolie cruelle, harmonie fluette, euphorie solitaire

**** Interlude 2 ****

Refrain 3 :
-----------

Dm                      Am                    C                    
Quand les souvenir s'en mêlent, les larmes me viennent, 
                   G
et le chant des sirènes me replonge en hiver 
Dm               Am                C                  G
Oh mélancolie cruelle, harmonie fluette, euphorie solitaire

Refrain 4 :
-----------

Dm                      Am                    C                    
Quand les souvenir s'en mêlent, les larmes me viennent, 
                   G
et le chant des sirènes me replonge en hiver 
Dm               Am                C                  G
Oh mélancolie cruelle, harmonie fluette, euphorie solitaire

**** Outro 2 ****


Laisser un commentaire