Tous les tutos

Sky sailing - Brielle

Posté le 24 novembre 2011 | Pop | 3 173 vues
Sky sailing - Brielle

Accordage: -1 ton (DGCFAD)


Intro et couplet (Répéter 3 fois)

e|----------------------------------------------------|
B|----1-----1-----1-----1------3-----3-----3/5---1----|
G|------0-----0-----0-----0------0-----0-------0---0--|
D|--3-----3-----2-----2-----/5-----5------------------|
A|---------------------------------------3------------|
E|----------------------------------------------------|

e|----------------------------------------------3----|
B|----1-----1-----1-----1---------3---1-------3------|
G|------0-----0-----0-----0---2/4---0-----2/4-----5--|
D|--3-----3------------------------------------------|
A|--------------3-----3------------------------------|
E|--------------------------3-----------3------------|

e|----------------------------------------------------|
B|----1-----1-----1-----1------3-----3-----3/5---1----|
G|------0-----0-----0-----0------0-----0-------0---0--|
D|--3-----3-----2-----2-----/5-----5------------------|
A|---------------------------------------3------------|
E|----------------------------------------------------|                                 

e|-----------------------------------------------3----|
B|----1-----1----------------------3---1-------3------|
G|------0-----0----5-0---5-0---2/4---0-----2/4-----5--| (x3)
D|--3-----3-----/7-----7------------------------------|
A|----------------------------------------------------|
E|---------------------------3-----------3------------|


Pré refrain

When the new sights grow old...

e|--8---8---8---5---
B|--5---5---5---5---
G|--5---5---5---5---
D|--7---6---5---5---
A|--------------7---
E|--------------5---

Puis finir sur Fa  -  Sol


Refrain :

C           G
  Goodbye Brielle
     Dm         F
Only whispers can tell
       C                            G
Of the sweet dreams that we knew so well
         Dm                  F        G
I'll see you around our dear ocean town
    C                  G
The frozen days we set ablaze
        Dm        F
Sent me drifting away
       C             
Like a butterfly you floated by
    G
And now you're alone
       Dm                  F        G
I wish I knew when I'll be back again
   Dm         C          F
So until then I wish you well
G              
My dear Brielle


Outro: F C G C

Donations

Vous appreciez mon travail et voulez me soutenir ?
Vous pouvez me soutenir en faisant un don ;)



Laisser un commentaire