Tous les tutos

Queen - Bohemian Rhapsody ( Solo )

Posté le 8 avril 2016 | Solo | 1 393 vues
Bohemian Rhapsody ( Solo ) - Queen

Lien pour le backing Track utilisé dans la démo :

Backing Track

Solo ( Commence à 2:32 sur le backing track )


e|------------------------------------------------------------------------------|
B|----------------11--8--11b13--13-15-16---13-15-16--16s18----------------------|
G|---10b12r10p8-----------------------------------------------------------------|
D|-8----------------------------------------------------------------------------|
A|------------------------------------------------------------------------------|
E|------------------------------------------------------------------------------|

e|----------16-18-20~---18-16-15-16-15h16p15----15------------------------------|
B|----18-20----------------------------------18----18-16-15-16------------------|
G|-17---------------------------------------------------------------------------|
D|------------------------------------------------------------------------------|
A|------------------------------------------------------------------------------|
E|------------------------------------------------------------------------------|

e|--------------------------------------------15-16-18~-------------------------|
B|--15h16p15----15-------------------15-16-18-----------------------------------|
G|-----------17----17--15-15---15-17--------------------------------------------|
D|------------------------------------------------------------------------------|
A|------------------------------------------------------------------------------|
E|------------------------------------------------------------------------------|

e|----------------15-16-18--18b20-------10-11-8---10-11-8--10-11--11s13---------|
B|-------15-16-18---------------------------------------------------------------|
G|-15-17------------------------------------------------------------------------|
D|------------------------------------------------------------------------------|
A|------------------------------------------------------------------------------|
E|------------------------------------------------------------------------------|

e|--------------13--------------------------------------------------------------|
B|----------------------14--14-14-14--------------------------------------------|
G|-10-12-12s13------13-----------------6--6h7p6---------------------------------|
D|-----------------------------------------------7------------------------------|
A|------------------------------------------------------------------------------|
E|------------------------------------------------------------------------------|



Laisser un commentaire