Tous les tutos

Kt Tunstall - Black Horse And The Cherry Tree

Posté le | Pop/Rock | 445 vues

Description


SITE : http://www.ipsacoustic.fr

http://www.facebook.com/pages/Guitare-Acoustique/2[…]7406105437

https://plus.google.com/109691133817544112579

http://guitaristik.forums-actifs.com

Salut à tous !! :)

Voici la tab : http://www.abc-tabs.com/tablature/kt-tunstall/blac[…]-tree.html

Et les infos pour la rythmique et la séquence d'accord :

Intro + "OUh OUh" :) :

Em : B H BH HBB
B7 : B H BH H
Em : BB

on fait ça 2 fois pour l'intro et 1 fois après chaque "phrase"

Partie sans accord (étouffé les cordes):

B BHB BHB BH HBH

Faites l'ensemble 4 fois/ couplet

Refrain :

Em : B B
D : HHBB BH BB
C : HHBB BH

Em : BB
D : HHBB BH
C7 : BH H
Am : B
A vide ( jouer les cordes aigues ) : B
Em : B HBHB

Faire ça 2 fois et la 2ème fois remplacer la partie
C7 - Am - Em par un C ( juste jouer un coup vers le bas )

Pour le ptit riff de basse ( à jouer après le premier refrain ) :

|-------------------------------------------------
|-------------------------------------------------
|-------------------------------------------------
|-------------------------------------------------
|----7---7----5----7-------------7---7-7--5--7----
|-0------------------------0----------------------

Et pour le riff de basse ( à jouer après le deuxième refrain ) :


|-----------------------------------------------
|-----------------------------------------------
|-----------------------------------------------
|-----------------------------------------------
|----7---7----5----7-------------7---7-7--5--7--
|-0------------------------0--------------------


|------------------------------------------------
|------------------------------------------------
|------------------------------------------------
|------------5-----------------------------------
|----7---7-------7-------------7---7-7--5--7-----
|-0------------------------0---------------------

Pour la partie " NO no no etc "

Faire juste BHB (étouffé ) en écoutant la partie batterie ;).

@++ et bonne gratte.

Ps : n'hésitez pas à laisser des commentaires ici ou sur facebook si vous avez des soucis, des suggestions etc ;).


Laisser un commentaire