Tous les tutos

Angèle - Balance Ton Quoi

Posté le 9 mai 2019 | Pop | 2 693 vues
Balance Ton Quoi - Angèle

Accords 
--------
Dm: xx0231 | G: 320033
C: x32010  | F: 133211


Rythmique B B*H HB*H

Les coups avec une étoile sont des coups percussifs.


Couplet 1
---------
                     Dm                G
e|-----------------|-----------------------------------------|
B|-----------0-1---|-3----3---1---1----0--------------0------|
G|--2-2--2-2-----2-|-2--2---2---2---2-----0-0--0-0--2---0----|
D|-----------------|-----------------------------------------|
A|-----------------|-----------------------------------------|
E|-----------------|-------------------3---------------------|
    C                    F
e|-----------------------------------------------------------|
B|--1----1---0--1--0-----------------0--1--------------------|
G|-----0---0----------2--2----2--2-2--------2----------------|
D|--------------------------3--------------------------------|
A|--3--------------------3-----------------------------------|
E|-----------------------------------------------------------|
    Dm                G
e|-----------------------------------------------------------|
B|--3----3---1---1----0--------------0-----------------------|
G|--2--2---2---2---2-----0-0--0-0--2---0---------------------|
D|-----------------------------------------------------------|
A|-----------------------------------------------------------|
E|--------------------3--------------------------------------|
    C                    F
e|-------------------------------1---------------------------|
B|--1----1---0--1--0-----------------------------------------|
G|-----0---0----------2--2----2------------------------------|
D|--------------------------3--------------------------------|
A|--3--------------------3-----------------------------------|
E|-----------------------------------------------------------|

Couplet 1
---------
                              Dm
Ils parlent tous comme des animaux
                               G
De toutes les chattes ça parle mal
                        C
2018 j'sais pas c'qui t'faut
                           F
Mais je suis plus qu'un animal
                            Dm
J'ai vu qu'le rap est à la mode
                                   G
Et qu'il marche mieux quand il est sale
                                 C
Bah faudrait p't'être casser les codes
                                   F
Une fille qui l'ouvre ça serait normal

Pré-refrain
-----------
            Dm   G
Balance ton quoi
           C                                    F
Même si tu parles mal des filles je sais qu'au fond t'as compris
            Dm
Balance ton quoi
                     G
Un jour peut-être ça changera
            C    F
Balance ton quoi

Refrain 1
---------
                       Dm   G
Donc laisse moi te chanter
                       C          F
D'aller te faire en... humhumhumhum
                            Dm   G
Ouais j'passerai pas à la radio
                                 C    F
Parce que mes mots sont pas très beaux

Couplet 2
---------
                          Dm
Les gens me disent à demi-mot
                                 G
Pour une fille belle t'es pas si bête
                                 C
Pour une fille drôle t'es pas si laide
                            F
Tes parents et ton frère ça aide
                 Dm
Oh, tu parles de moi
                   G
C'est quoi ton problème ?
                        C
J'ai écrit rien qu'pour toi
                   F
Le plus beau des poèmes

Refrain 2
---------
                       Dm   G
Donc laisse moi te chanter
                       C          F
D'aller te faire en... humhumhumhum
                               Dm   G
Ouais j's'rais polie pour la télé
                       C          F
Mais va te faire en... humhumhumhum

            Dm   G   C   F
Balance ton quoi
            Dm   G   C   F
Balance ton quoi
            Dm
Balance ton quoi

Pont
----
                     G
Un jour peut-être ça changera
              C
Y a plus d'respect dans la rue
             F
Tu sais très bien quand t'abuses
            Dm  G
Balance ton quoi
            C    F
Balance ton quoi

Refrain
-------
                       Dm   G
Donc laisse moi te chanter
                       C          F
D'aller te faire en... humhumhumhum
                            Dm   G
Ouais j'passerai pas à la radio
                                 C    F
Parce que mes mots sont pas très beaux
                       Dm   G
Donc laisse moi te chanter
                       C          F
D'aller te faire en... humhumhumhum
                               Dm   G
Ouais j's'rais polie pour la télé
                       C          F
Mais va te faire en... humhumhumhum

Post-Refrain
------------
            Dm   G   C   F
Balance ton quoi
            Dm   G   C   F
Balance ton quoi
            Dm   G
Balance ton quoi 

Outro
-----
            C
Même si tu parles mal des filles
              F
Je sais qu'au fond t'as compris
            Dm
Balance ton quoi
                     G
Un jour peut-être ça changera
            C    F
Balance ton quoi


Laisser un commentaire