Tous les tutos

Vitaa & Slimane - Avant Toi

Posté le 13 avril 2020 | Variété Française | 10 755 vues
Avant Toi - Vitaa & Slimane

DEMO ( Bloquée sur youtube ) : Voir sur Dailymotion

Tempo ~70bpm

Capo 3

Pattern Couplets / Refrains

e|-----------------|
B|--x-----x--------|
G|--x-----x--------|
D|-----x-----x-----|
A|-----------------|
E|-(b)-------------|

Rythmique Possible :
B B BH


Intro
-----   
   Em                C                 G                 D/F#
e|-----------------------------------|---------------------------|
B|-0--------0--------1-------1-------|-0--------0--------0-------|
G|-----0--------0--------0-------0---|-----0--------0------------|
D|---2---2----2---2----2---2---2---2-|---0---0----0---0------4---|
A|-------------------3-------3-------|---------------------------|
E|-0--------0------------------------|-3--------3--------2-------|

   Em                C                 G                 D/F#
e|-----------------------------------|---------------------------|
B|-0--------0--------1-------1-------|-0--------0----------------|
G|-----0--------0--------0-------0---|-----0--------0----2-------|
D|---2---2----2---2----2---2---2---2-|---0---0----0---0------4---|
A|-------------------3-------3-------|---------------------------|
E|-0--------0------------------------|-3--------3--------2-------|
 
Couplet 1
---------
Em              C                      G
 Y'avait pas d'image, y'avait pas d'couleur
                 D/F#           Em
Y'avait pas d'histoire, mon âme soeur
                C                     G
Y'avait pas les fêtes, y'avait pas l'coeur
         D/F#          Em
Aucun sourire, mon âme soeur
 
Pré-Refrain
-----------
           C                       G
Tu sais le monde ne tournait pas rond
            D/F#                    Em
J'avais les mots, mais pas la chanson
           C                      G  D/F#
Tu sais l'amour, tu sais la passion
Am(2)                       CM7
 Oui, c'est écrit, c'était dit
     D/F#
Oui, c'est la vie
 
Refrain
-------
G  D/F#    Em    C         G
   Avant toi, je n'avais rien
D/F#    Em    C                      G
Avant toi, on m'a pas montré le chemin
           D/F#              Em
Je sais le ciel ne m'en veut pas
          C               G
D'avoir posé les yeux sur toi
D/F#    Em    C                      G
Avant toi, on m'a pas montré le chemin
 
Interlude
---------
        D/F#
Ooh ooh ooh
Em        C
 Ooh ooh ooh
G         D/F#
 Ooh ooh ooh
Em        C
 Ooh ooh ooh
 
Couplet 2
---------
Em                C                    G
 Y'avait pas d'maison, y'avait pas l'bonheur
                 D/F#         Em
J'avais pas d'raison, mon âme soeur
               C                        G
Y'avait pas de rire, mais y'avait pas d'pleurs
               D/F#        Em
J'étais seule ici, mon âme soeur
 
Pré-Refrain
-----------
           C                       G
Tu sais le monde ne tournait pas rond
            D/F#                    Em
J'avais les mots, mais pas la chanson
           C                      G  D/F#
Tu sais l'amour de toutes les façons
Am(2)                        CM7
 Oui, c'est écrit, c'était dit
     D/F#
Oui, c'est la vie
 
Refrain
-------
G  D/F#    Em    C         G
   Avant toi, je n'avais rien
D/F#    Em    C                      G
Avant toi, on m'a pas montré le chemin
           D/F#              Em
Je sais le ciel ne m'en veut pas
          C               G
D'avoir posé les yeux sur toi
D/F#    Em    C                      G
Avant toi, on m'a pas montré le chemin
 
Interlude
---------
        D/F#
Ooh ooh ooh
Em        C
 Ooh ooh ooh
G         D/F#
 Ooh ooh ooh
Em        C
 Ooh ooh ooh
 
Pont
----
G  D/F#    Em    C         G
   Avant toi, je n'avais rien
D/F#    Em    C                      G
Avant toi, on m'a pas montré le chemin
 
Refrain
-------
D/F#    Em    C         G
Avant toi, je n'avais rien
D/F#    Em    C                      G
Avant toi, on m'a pas montré le chemin
           D/F#              Em
Je sais le ciel ne m'en veut pas
          C               G
D'avoir posé les yeux sur toi
D/F#    Em    C                      G
Avant toi, on m'a pas montré le chemin
 
Outro
-----
        D/F#
Ooh ooh ooh
Em        C
 Ooh ooh ooh
G         D/F#
 Ooh ooh ooh
Em        C  C
 Ooh ooh ooh

Donations

Vous appreciez mon travail et voulez me soutenir ?
Vous pouvez me soutenir en faisant un don ;)



Laisser un commentaire