Tous les tutos

Melissmell - Aux Armes

Posté le 9 mai 2011 | Variété Française | 4 805 vues

Description


http://www.facebook.com/pages/Guitare-Acoustique/2[…]7406105437

Salut à tous !! Une chanson qu'on m'a fait découvrir il y a quelques jours et que je trouve vraiment sympa. Y'a des approximations dans la vidéo, mais il y a, je pense, de quoi se débrouiller pour la jouer ^^.

Voici la tablature :

http://www.abc-tabs.com/tablature/melissmell/aux-a[…]armes.html

Capo 1


Jouer cette partie 4 fois au début ( 2 fois pour l'intro et 2 fois quand elle
commence à chanter ).

e|------------------------------7-------------------------------------------
B|-------------8-------10-----------10-----------------8-------10-----12----
G|---------0-------0-------0------------------------------------------------
D|------------------------------------------------s10-----10------10--------
A|------------------------------------------0-------------------------------
E|--s8----------------------------------------------------------------------


e|--------------------------7--------------------------7--------------------
B|------------8------10---------10------7--8---8h10-------------10----------
G|--------------------------------------7-----------7-----7--------7--------
D|--------s9-----9-------9--------------0-----------------------------------
A|--------------------------------------------------------------------------
E|---0----------------------------------------------------------------------



Em - C - Sol - Ré 2 fois


Puis


( A faire 2 fois aussi ) :

Em(024030) - C ( 034030 ) - Sol ( 3x0033) enchainé avec (x20033 et x30033) - Résus4 (xx0233)-Ré

Rythmique : BB HHB BHBH

Et ensuite vous jouez :

(x7x077) - (x3x033) - Sol - Ré.

Voila toutes les parties je pense. Vous pouvez apparemment seulement jouer les accords Em-C-Sol-Ré
à la place des variations que j'ai mis.

Bye et amusez vous bien.

Donations

Vous appreciez mon travail et voulez me soutenir ?
Vous pouvez me soutenir en faisant un don ;)



Laisser un commentaire