Tablature – Miracle ( Julian Perretta )

Posté le 7 juin 2016 par ipsaous dans Tablatures | 2 328 vues
  • Hello tout le monde ! Une autre tablature que j’ai réalisé en me basant sur la vidéo disponible sur la chaîne madmoizelle.com. Une version Acoustique assez simple à jouer et également rapide à apprendre étant donné qu’on répète la même chose quasiment tout le long ;). Une chanson pour préparer l’été quoi ! 😉

    Enjoy !

    Chanson

    Tablature

    Julian Perretta - Miracle
    
    Rythmique possible : B H(B)B H(B)B BH
    
    Arpège pour toute la chanson :
    ------------------------------
    
       Gm                 Eb                 Bb                F
    e|------------------------------------------------------------------------------|
    B|----------------------4---4---4----4-----3---3---3---3------------------------|
    G|---3---3---3----3------------------------------------------2---2---2---2------|
    D|---------------------------------------3---3---3---3--------------------------|
    A|-5---5---5---5------6---6---6---6------------------------3---3---3---3--------|
    E|------------------------------------------------------------------------------|
    
    Couplet 1 :
    -----------
    Gm                     Eb
     When the leaves turn brown
                 Bb   
    I watched it burn
               F                     Gm
    Across the sun and above the clouds
               Eb
    The sirens clear
                 Bb              F                        Gm
    I'm ready to fall and find a lover that was meant for me
                        Eb
    When the wolves run wild
             Bb
    I see myself
                            F            Gm
    But you won't take this road I go down
                    Eb
    The nights grow cold
                   Bb
    The flame goes out
              F                    F  F
    Living forever in a ghost town
    
    Refrain 1 :
    -----------
    Gm
       You save me
    Eb
       I save you
    Bb        F                     Gm 
       A miracle that was meant for two
    
       I save you
    Eb         
       You save me
    Bb           F                     Gm
       a miracle with every beat of my heart
    
    Solo : (Faire 2 fois la séquence Gm - Eb - Bb - F )
    ------
    
    e||------------10--------------------10---------------------------|
    B||--11-11--11----13-11-13-11-----13----13-11-13-11---------------|
    G||*--------------------------12--------------------12------------|
    D||*--------------------------------------------------------------|
    A||---------------------------------------------------------------|
    E||---------------------------------------------------------------|
    
    e|----10----------------------13-11-10--------------------------||
    B|-13----13-11-13--13-13---13----------13-----------------------||
    G|-----------------------------------------12------------------*||
    D|-------------------------------------------------------------*|| X2
    A|--------------------------------------------------------------||
    E|--------------------------------------------------------------||
    
    Refrain 1 :
    -----------
    Gm
       You save me
    Eb
       I save you
    Bb        F                     Gm 
       A miracle that was meant for two
    
       I save you
    Eb         
       You save me
    Bb           F                     Gm
       a miracle with every beat of my heart
    
    Solo :
    ------