Tous les tutos

Saez - A ton nom

Posté le 18 décembre 2014 | Variété Française | 14 377 vues
A ton nom - Damien Saez

***** Accords *****

Am : x02210   C : x32010   Em : 022000

Asus4 : x02230  FM7 : xx3210


***** Arpège *****

Couplet :
---------

     Am                      C                       Em
e||--0--------0--0-----------0--------0-0----------------------------|
B||-------1-----------1-----------1------------3-1---0-------0--0----|
G||*----2---2-------2-----0-----0---0--------0-----------0-----------|
D||*---------------------------------------2-----------2---2---------|
A||--0-----------0------2----3----------3----------------------------|
E||--------------------------------------------------0----------0----|

                Asus4 Am
e|-------------------------------------------------------||
B|-----3-----3------3----1--1------1h3p1--ou---0h1p0-----||
G|---0------------2--------------2----------------------*||
D|-2------0-----2-----2--------2------------------------*|| X 4
A|-------------------------------------------------------||
E|-------------------------------------------------------||

Refrain :
---------

     C		           Am                 FM7
e||--0-------0-0-----------0-------0-0--------0-------0--0----1-0---|
B||------1---------1-----------1----------1-------1-----------------|
G||*---0---0-----0-----0-----2---2------2-------2---2-------2-------|
D||*------------------------------------------3----------3----------|
A||--3---------3-----2-----0---------0------------------------------|
E||-----------------------------------------------------------------| 

   C
e|-0-------0--0-----0h1p0------||
B|-----1-----------------------||
G|---0---0--------0-----------*||
D|----------------------------*|| X2
A|-3----------3----------------||
E|-----------------------------||


***** Chanson *****

Couplet 1 :
-----------

Am             C                        Em
On a prié pour toi, on en a dessiné des croix
  Asus4 Am
A ton nom
Am                C                         Em
On en a brûlé des livres, on a égorgé des enfants
         Asus4  Am
Juste de quoi tuer le temps
Am                            C                               Em
Mais toi t’as pris différents noms, t’as choisi différents drapeaux
    Asus Am
Dis mais pourquoi
Am                       C                              Em
Moi je me souviens de ma mère qui me chantait cette chanson
  Asus Am
Alleluyah

Refrain 1:
----------

C     Am  FM7            C
Alleluyah,        Inch’Allah (2x)

Couplet 2 :
-----------
Am                        C                              Em
On en a fait toute une histoire, où tu redescendais nous voir
     Asus4   Am
Mais t’es pas venu
Am                        C                              Em
Nos sanglots pour uniques armes à combattre pour que nos larmes
   Asus4      Am
Ne soient pas perdues
Am                                C                           Em
De siècles en siècles de nuits en nuits et d’horreur en miséricorde
   Asus4  Am
On t’as attendu
Am                            C                               Em
Mais l’espoir n’est pas l’éternel et mon dieu que la nuit est belle
          Asus4   Am
Sur notre plaine perdue

Refrain 2:
----------

C     Am  FM7            C
Alleluyah,        Inch’Allah (2x)

Donations

Vous appreciez mon travail et voulez me soutenir ?
Vous pouvez me soutenir en faisant un don ;)



Laisser un commentaire