Tous les tutos

Soprano - Millionnaire

Posté le | R'n'B | 2 764 vues
Millionnaire - Soprano

Si vous ne pouvez pas voir la démo sur youtube, voici le lien
pour dailymotion Millionnaire

Capo 2 

Rythmique globale :

B H(B)B HBB BH

Couplets :
----------

     Am                        F
e||----------0---------------------------------------------|
B||------------3--------3--1----------1-0---------0--------|
G||*------2-----------2-------------2-----------2----------|
D||*----2-----------2-------------3-----------3------------|
A||--0-----------0-----------------------------------------|
E||----------------------------1-----------1---------------|

   G                          Em
e|-------------------------------------------------------||
B|--------3-1--------1-0------------0--------------------||
G|------0----------0--------------0---2------0-2--------*||
D|----0----------0--------------2----------2------------*||
A|-------------------------------------------------------||
E|-3-----------3--------------0----------0---------------||

   F                   Am                   G
e|------------------------------0--0---0--------------------------|
B|-------1--1-1-0-1----------1-------3-------------0--3--1-0-3----|
G|-----2-------------------2---------------------0----------------|
D|---3-------------------2---------------------0------------------|
A|---------------------0------------------------------------------|
E|-1----------------------------------------3---------------------|


Refrains :
---------

   Am                    C
e|----------0-----1-0-------------0------1-0--------------|
B|--------1---------------------1-------------------------|
G|------2-------2-------------0--------0------------------|
D|----2---------------------2-----------------------------|
A|-0----------0----------3-----------3--------------------|
E|--------------------------------------------------------|

   G                      F
e|--------------------------------------------------------|
B|--------0-1------3--1----------1---1-1-0-1--------------|
G|------0-------0--------------2--------------------------|
D|----0----------------------3----------------------------|
A|--------------------------------------------------------|
E|-3----------3-----------1-------------------------------|

   Am                    C
e|----------0-----1-0-------------0------1-0--------------|
B|--------1---------------------1-------------------------|
G|------2-------2-------------0--------0------------------|
D|----2---------------------2-----------------------------|
A|-0----------0----------3-----------3--------------------|
E|--------------------------------------------------------|

   G                      Em
e|--------------------------------------------------------|
B|--------0-1------3--1------------0----------------------|
G|------0-------0----------------0----------0--2----------|
D|----0------------------------2----------2---------------|
A|---------------------------2----------------------------|
E|-3----------3-----------0------------0------------------|


Chanson

Intro :
-------

Am - F - G - Em

Couplet 1 :
-----------
Am                              F
   Je veux être riche de ton sourire
                        G
De ta volonté à reconstruire 
                              Em
De tes aventures, de tes croisières
                          Am
De ta victoire face au cancer
                           F
De ton mariage, de ta grossesse
                       G 
De ton pardon, de ta sagesse
                            Em 
De ta liberté loin de l' enclos
                             F
De ta différence, de ton drapeau 
                  Am
Oui j'ai besoin d'air
                G
Je suis à découvert 

Refrain 1 :
-----------
                      Am            C
Si tu m'aime rend moi millionnaire 
         G                                 F
Pour m'acheter ce qui n'a pas de prix dans ce monde éphémère 
         Am            C
Rend moi milliardaire 
            G       Em                       (Am de l'interlude)
J'ai besoin de toi, sois mon luxe ma mine de diamant 

Interlude :
-----------

Am - F - G - Em

Couplet 2 :
-----------

Am                            F
   Je veux être pauvre de tes larmes
                              G
De ces fanatiques et de leurs armes
                             Em 
De ces amalgames qui nous divisent
                                Am 
Des guerres en Afrique, des génocides
                             F
De ces maladies qui nous condamnent
                            G
De ce jour où Maman rendra l'âme
                            Em
De cette jeunesse qu'on abandonne
                                 F
aux mains de ces fous aux idées folles 
                  Am
Oui j'ai besoin d'air
                G
Je suis à découvert 


Refrain 2 :
-----------

                      Am            C
Si tu m'aime rend moi millionnaire 
         G                                 F
Pour m'acheter ce qui n'a pas de prix dans ce monde éphémère 
         Am            C
Rend moi milliardaire 
            G       Em                       (Am de l'interlude)
J'ai besoin de toi, sois mon luxe ma mine de diamant 

Interlude :
-----------

Am - F - G - Em


Couplet 3 : ( Rappé )
-----------
Soit ma richesse, ma gloire, mon ivresse 
Soit mon échelle pour monter l'Everest 
Soit mon alliance, ma marque de noblesse 
Dans la course au bonheur soit mon moteur, ma vitesse 
Je veux être riche en humanité 
Pour pouvoir en laisser en pourboire 
La cupidité nous a endetté 
Remplis moi les poches d'espoir 
Remplis moi les poches d'espoir 
Remplis moi les poches d'espoir 
Remplis moi les poches d'espoir 


Refrain 3 :
-----------

                      Am            C
Si tu m'aime rend moi millionnaire 
         G                                 F
Pour m'acheter ce qui n'a pas de prix dans ce monde éphémère 
         Am            C
Rend moi milliardaire 
            G       Em                        Am     C  G         
J'ai besoin de toi, sois mon luxe ma mine de diamant 
F                        Am      C G
Soit mon luxe ma mine de diamant 
Em                       (Am de l'outro)
Soit mon luxe ma mine de diamant

Outro :
-------

Am - F - G - Em       X 2




Laisser un commentaire