Tous les tutos

Les Frangines - Donnez-moi

Posté le 7 novembre 2019 | Variété Française | 948 vues
Donnez-moi - Les Frangines

Capo 5

Accords:
-------- 
GM7/E: 024000,C/G: 332010, D/A: 554030, D/F#: 20023x

Rythmique Pont: B HBB

Intro
-----
   C              D           Em                        G 
e|------------------------------------------------------------------------------|
B|-----1-x----1------3-x---3-----0-x---0------0-x---0-------0-x--0------0-x--0--|
G|*----0-x----0------0-x---0-----0-x---0------0-x---0-------0-x--0------0-x--0--|
D|*----2-x----2------4-x---4-----2-x---2------2-x---2-------0-x--0------0-x--0--|
A|--3--------------5------------------------------------------------------------|
E|-----------------------------0-----------0-------------3------------3---------|

 -------------------------------
 |1.

   Am7          G
e|-----------------------------|
B|----1-x---1------3-----------|
G|----0-x---0----------0------*|
D|----2-x---2------------0----*|
A|-0------------2--------------|
E|-----------------------------|

 -------------------------------
 |2.

   Am7     G
e|-----------------------------|
B|-1-------3-------------------|
G|---0--------0----------------|
D|-----0-----------------------|
A|-0-------2-------------------|
E|-----------------------------|

Couplet 1 ( 2 fois le picking par accord )
---------
C                     D
 J'aurais beau parler les langues du monde
G                      C
 J'aurais beau être un gagnant
C                     D
 J'aurais beau n'être pas des gens de l'ombre
G                   C
 J'aurais beau être puissant

Pré-refrain
-----------
C
Donnez-moi l'automne, donnez-moi du temps
D
Donnez-moi de l'été
G
Donnez-moi de l'art, donnez du printemps
C
Donnez de la beauté
C
Donnez-moi de l'or, donnez de l'argent
D                           GM7/E
Donnez-moi un voilier, oh ohé

Refrain
-------
Em(2)                           C(1)      D(1)
 Si je m'aime pas, si je t'aime pas, ça sert à quoi ?
Em(2)              C(1)        D(1)
 A quoi bon les honneurs et la gloire
Em(2)                           C(1)      D(1)
 Si je m'aime pas, si je t'aime pas, ça rime à quoi ?
G(2)                 Am7(1)    G(1)
 Sans amour nos vies sont dérisoires

Instrumental ( Faire comme l'intro )
------------
C(1) D(1) Em(2) G(2) Am7(1) G(1)   x2

Couplet 2 ( 2 fois le picking par accord )
---------
C                        D
 J'aurais beau plaire et conquérir la terre
G                      C
 J'aurais beau être un Don Juan
C                       D
 J'aurais beau faire la plus belle carrière
G                     C
 J'aurais beau être important

Pré-refrain
-----------
C
Donnez-moi l'automne, donnez-moi du temps
D
Donnez-moi de l'été
G
Donnez-moi de l'art, donnez du printemps
C
Donnez de la beauté
C
Donnez-moi de l'or, donnez de l'argent
D                           GM7/E
Donnez-moi un voilier, oh ohé

Refrain
-------
Em(2)                           C(1)      D(1)
 Si je m'aime pas, si je t'aime pas, ça sert à quoi ?
Em(2)              C(1)        D(1)
 A quoi bon les honneurs et la gloire
Em(2)                           C(1)      D(1)
 Si je m'aime pas, si je t'aime pas, ça rime à quoi ?
G(2)                 Am7(1)    G(1)
 Sans amour nos vies sont dérisoires


Instrumental ( Faire comme l'intro )
------------
C(1) D(1) Em(2) G(2) Am7(1) G(1)   x2

Pont
----
   C/G(1)   D/A(1) Em(2)
Aimer c'est rece-  voir
   G(1)            Am(1) C(2)
Et savoir tout donner
      C/G(1) D/A(1)  Em(2)
C'est s'ou- blier et voir
   Am(1)   G(1) D/F#(2)
Ce qu'on a oublié

Pré-refrain
-----------
C
Donnez-moi l'automne, donnez-moi du temps
D
Donnez-moi de l'été
G
Donnez-moi de l'art, donnez du printemps
C
Donnez de la beauté
C
Donnez-moi de l'or, donnez de l'argent
D                           GM7/E
Donnez-moi un voilier, oh ohé

Refrain
-------
Em(2)                           C(1)      D(1)
 Si je m'aime pas, si je t'aime pas, ça sert à quoi ?
Em(2)              C(1)        D(1)
 A quoi bon les honneurs et la gloire
Em(2)                           C(1)      D(1)
 Si je m'aime pas, si je t'aime pas, ça rime à quoi ?
G(2)                 Am7(1)    G(1)
 Sans amour nos vies sont dérisoires

Instrumental ( Faire comme l'intro ou avec la rythmique du pont )
------------
C(1) D(1) Em(2) G(2) Am7(1) G(1)   x2


Donations

Vous appreciez mon travail et voulez me soutenir ?
Vous pouvez me soutenir en faisant un don ;)



Laisser un commentaire