Tous les tutos

Angus & Julia Stones - Devil’s Tears

Posté le 6 juillet 2012 | Folk | 2 245 vues
THE DEVIL'S TEARS - ANGUS & JULIA STONE

Capo 1

INTRO:
 
    E                  C              G                D
E|--2h3--------3---------------------------------------0h2-------2--------|
B|---------0-------0---3-------3------0-------0---------------3------3----|
G|------0--------0---------0-------0-------0------0---------2------2------|
D|--2-------2------------2-------2-------0------0------0-------0----------|
A|---------------------3-----3--------------------------------------------|
E|------------------------------------3-----3-----------------------------|

    E                  C              G                D
E|--2h3--------3---------------------------------------0h2-------2--------|
B|---------0-------0---3-------3------0-------0---------------3------3----|
G|------0--------0---------0-------0-------0------0---------2------2------|
D|--2-------2------------2-------2-------0------0------0-------0----------|
A|---------------------3-----3--------------------------------------------|
E|------------------------------------3-----3-----------------------------|

    D     
E|--2--------2------2h3-------3-----5-------------------------------------|
B|------3--------3--------3-------3---------------------------------------|
G|----2--------2--------2-------2-----------------------------------------|
D|--0-----0---------0-------0---------------------------------------------|
A|------------------------------------------------------------------------|
E|------------------------------------------------------------------------|


Couplet :
 
    E                  C              G                D 
E|--2h3--------3---------------------------------------0h2-------2--------||
B|---------0-------0---3-------3------0-------0---------------3------3----||
G|------0--------0---------0-------0-------0------0---------2------2------||
D|--2-------2------------2-------2-------0------0------0-------0----------||
A|---------------------3-----3--------------------------------------------||
E|------------------------------------3-----3-----------------------------||

Repeat (x8), for the 8th time:

    E                  C              G                D
E|--2h3--------3---------------------------------------0h2-------2--------|
B|---------0-------0---3-------3------0-------0---------------3------3----|
G|------0--------0---------0-------0-------0------0---------2------2------|
D|--2-------2------------2-------2-------0------0------0-------0----------|
A|---------------------3-----3--------------------------------------------|
E|------------------------------------3-----3-----------------------------|

    D     
E|--2--------2------2h3-------3-----5-------5-----------------------------|
B|------3--------3--------3-------3-----3-------3-------------------------|
G|----2--------2--------2-------2-----2-------2---------------------------|
D|--0-----0---------0-------0-------0-----0-------------------------------|
A|------------------------------------------------------------------------|
E|------------------------------------------------------------------------|


Refrain :
 
    E                  C              G                D 
E|--2h3--------3---------------------------------------0h2-------2--------||
B|---------0-------0---3-------3------0-------0---------------3------3----||
G|------0--------0---------0-------0-------0------0---------2------2------||
D|--2-------2------------2-------2-------0------0------0-------0----------||
A|---------------------3-----3--------------------------------------------||
E|------------------------------------3-----3-----------------------------||

repeat (x8)


Couplet : 
 
    E                  C              G                D 
E|--2h3--------3---------------------------------------0h2-------2--------||
B|---------0-------0---3-------3------0-------0---------------3------3----||
G|------0--------0---------0-------0-------0------0---------2------2------||
D|--2-------2------------2-------2-------0------0------0-------0----------||
A|---------------------3-----3--------------------------------------------||
E|------------------------------------3-----3-----------------------------||

Repeat (x8), do this for the 8th time:

    E                  C              G                D
E|--2h3--------3---------------------------------------0h2-------2--------|
B|---------0-------0---3-------3------0-------0---------------3------3----|
G|------0--------0---------0-------0-------0------0---------2------2------|
D|--2-------2------------2-------2-------0------0------0-------0----------|
A|---------------------3-----3--------------------------------------------|
E|------------------------------------3-----3-----------------------------|

    D     
E|--2--------2------2h3-------3-----5-------5-----------------------------|
B|------3--------3--------3-------3-----3-------3-------------------------|
G|----2--------2--------2-------2-----2-------2---------------------------|
D|--0-----0---------0-------0-------0-----0-------------------------------|
A|------------------------------------------------------------------------|
E|------------------------------------------------------------------------|



Refrain 2 :
 
    E                  C              G                D 
E|--2h3--------3---------------------------------------0h2-------2--------||
B|---------0-------0---3-------3------0-------0---------------3------3----||
G|------0--------0---------0-------0-------0------0---------2------2------||
D|--2-------2------------2-------2-------0------0------0-------0----------||
A|---------------------3-----3--------------------------------------------||
E|------------------------------------3-----3-----------------------------||

repeat (x5)


OUTRO:
 
    E                  C              G                D 
E|--2h3--------3---------------------------------------0h2-------2--------||
B|---------0-------0---3-------3------0-------0---------------3------3----||
G|------0--------0---------0-------0-------0------0---------2------2------||
D|--2-------2------------2-------2-------0------0------0-------0----------||
A|---------------------3-----3--------------------------------------------||
E|------------------------------------3-----3-----------------------------||


repeat (x8) *fade out*

Donations

Vous appreciez mon travail et voulez me soutenir ?
Vous pouvez me soutenir en faisant un don ;)



Laisser un commentaire