Tous les tutos

Ed Sheeran - Thinking out loud

Posté le 13 novembre 2014 | Pop/Folk | 9 450 vues
Thinking Out Loud - Ed Sheeran

Réglages utilisé pour le son du solo

Tempo : ~80 à la noire

Accords :
---------

D : xx0232  D/F# : 2x0232  G : 320033  A : x02220
A7 : x02020  Em : 022000  Bm : x24432

Motif du picking :

     D        D/F#            G        A
e||--------x-----------x----|-------x---------------------||
B||--3-----x--3--------x----|-0-----x--2------------------||
G||*-0h2---x--2--------x----|-0-----x--2--------2h4------*||
D||*-0-----x--0--------x----|-0-----x--2-----2--2--------*||
A||--------x-----------x----|-------x--0------------------||
E||--------x--2-----2--x----|-3-----x---------------------||

     1  &  2  &  3  &  4  &   1  &  2  &  3  &  4   &

Fin des couplets et refrains ( avant séquence Bm-A-G-D/F#-Em-A-D )

   D        D/F#            G        A
e|-------x-----------x----|-------x-----------x---------|
B|-3-----x--3--------x----|-0-----x--2--------x---------|
G|-0h2---x--2--------x----|-0-----x--2--------x---------|
D|-0-----x--0--------x----|-0-----x--2--------x---------|
A|-------x-----------x----|-------x--0--------x---------|
E|-------x--2-----2--x----|-3-----x-----------x---------|

   1  &  2  &  3  &  4  &   1  &  2  &  3  &  4   &

Rythmique refrain :
-------------------
Rythmique globale : B HBB HBB BH

Sur la séquence A - D :

A: B HB  
D: B HBB BH

Sur la séquence A - Bm :

A : B HB  
Bm : B HBB BH


Couplet 1 :
-----------

D                D/F#              G               A
When your legs don't work like they used to before
D              D/F#          G          A
And I can't sweep you off of your feet
D              D/F#                      G           A
Will your mouth still remember the taste of my love
D              D/F#              G           A
Will your eyes still smile from your cheeks


D              D/F#             G       A          D  D/F#  G  A
And darling I will be loving you 'til we're 70
D              D/F#             G       A          D  D/F#
And baby my heart could still fall as hard at 23
G                        A
And I'm thinking 'bout how


Refrain 1 :
-----------

Em(1)                           A       D
people fall in love in mysterious ways
Em(1)                             A(1)
Maybe just the touch of a hand
Em(1)                              A       Bm
Oh me I fall in love with you every single day
Em(1)                           A7(BBBBB)
And I just wanna tell you I am


D          D/F#
So honey now
G        A                D     D/F#
Take me into your loving arms
G         A                      D     D/F#
Kiss me under the light of a thousand stars
G           A           D     D/F#
Place your head on my beating heart
G                  A
I'm thinking out loud
      Bm   A    G   D/F#  Em     A   D
Maybe we found love right where we are


Couplet 2 : Idem que couplet 1
-----------

When my hair's all but gone and my memory fades
And the crowds don't remember my name
When my hands don't play the strings the same way, mm
I know you will still love me the same

'Cause honey your soul can never grow old, it's evergreen
Baby your smile's forever in my mind and memory

Refrain 2 : Idem que refrain 1
-----------

I'm thinking 'bout how people fall in love in mysterious ways
Maybe it's all part of a plan
I just keep on making the same mistakes
Hoping that you'll understand

But baby now
Take me into your loving arms
Kiss me under the light of a thousand stars
Place your head on my beating heart
I'm thinking out loud
That maybe we found love right where we are, oh
(Ah la la, la la la, la la la, la la la la)

Solo :
------

Pour l'accompagnement on fera 4 fois la séquence : D - D/F# - G - A

e|-------------------------------------------------------------------|
B|-----------------7----- 7------------------------------------------|
G|------------7----7h9----9b(11)---9-7h9p7~---xx---7---7-------------|
D|--------7---7h9-----------------------------xx---7h9-7h9--7~-------|
A|--------7h9--------------------------------------------------------|
E|-------------------------------------------------------------------|

e|----------------------------------------------------------------------|
B|----------------7----7----- 10~------------------10h12-10h12~-10------|
G|------------7---7h9--9b(11)---—---9p7-9p7~-xx-------------------------|
D|--------7---7h9----------------------------xx-------------------------|
A|--------7h9-----------------------------------------------------------|
E|----------------------------------------------------------------------|

e|-------------------12b---10~~----12b (14)----------------------------------|
B|---------------------------------------------------------------------------|
G|---------------------------------------------------------------------------|
D|---------------------------------------------------------------------------|
A|---------------------------------------------------------------------------|
E|---------------------------------------------------------------------------|

e|10---10---10---10----10---10---10--------10------------------------------------|
B|10-h-12---10-h-12----10-h-12---10--------12-----10------------------------10~--|
G|------------------------------------------------9--h-11-p-9-s-7----9-s-11------|
D|-------------------------------------------------------------------------------|
A|-------------------------------------------------------------------------------|
E|-------------------------------------------------------------------------------|

e|------10-10-10-------9--9--9------7-7-7-----5-5-5------------------------------|
B|------12-12-12------10-10-10------8-8-8-----7-7-7------------------------------|
G|-------------------------------------------------------------------------------|
D|-------------------------------------------------------------------------------|
A|-------------------------------------------------------------------------------|
E|-------------------------------------------------------------------------------|

Refrain 3 :
-----------

D          D/F#
So baby now
G        A                D     D/F#
Take me into your loving arms
G         A                      D     D/F#
Kiss me under the light of a thousand stars
G           A           D     D/F#
Oh darling, place your head on my beating heart
G                  A
I'm thinking out loud
           Bm   A    G   D/F#  Em     A   D
That maybe we found love right where we are
         Bm   A    G   D/F#  Em     A   D
Oh maybe we found love right where we are
    Bm   A    G   D/F#  Em     A   D
And we found love right where we are


Laisser un commentaire