Tous les tutos

Jean-Jacques Goldman - Je te donne ( Solo )

Posté le 19 juillet 2014 | Solo | 8 077 vues
Je te donne - Jean-jacques Goldman

Amusez-Vous bien ;).

Voici les paramètres que j'ai utilisé pour le son sous Guitar Rig 5 : Paramètres du son

Solo

1ère guitare

|---------------------|-------------------7-8-7-|-----------------7-8-7-|
|-----8-10b-10b-10-8-8|-10--8-8-8--6/8-10-------|-10-10--8--8--10-------|
|-7-9-----------------|-------------------------|-----------------------|
|---------------------|-------------------------|-----------------------|
|---------------------|-------------------------|-----------------------|
|---------------------|-------------------------|-----------------------|


|-7/15-15-15-15-14h15p14--12----12------------|-----7-8-7-----7-8--7-----------|
|----------------------------15---15--12-7/8--|-10----------8--------8—10b-10--|
|---------------------------------------------|-----------7--------------------|
|---------------------------------------------|--------------------------------|
|---------------------------------------------|--------------------------------|
|---------------------------------------------|--------------------------------|


2ème guitare

|-------------------15-------------------------------------------|
|-15b17-15b17-15b17---15b17—15-13-12-------------12-12-13-14-15--|
|------------------------------------12-------12-----------------|
|---------------------------------------12h14--------------------|
|----------------------------------------------------------------|
|----------------------------------------------------------------|


|-------------------------------15-17p15-17br17p15-17b--17p15s14--|
|-----------15------------12s15-----------------------------------|
|-b16r14-12----b16r14-12------------------------------------------|
|-----------------------------------------------------------------|
|-----------------------------------------------------------------|
|-----------------------------------------------------------------|


|-15p14----------------------------15-17-17b-17-14----------------|
|-------17b-17-13p12-13b-----12s15-----------------15b-15-13-12---|
|------------------------12---------------------------------------|
|-----------------------------------------------------------------|
|-----------------------------------------------------------------|
|-----------------------------------------------------------------|



Laisser un commentaire