Tous les tutos

Stromae - Tous les mêmes

Posté le 21 juillet 2014 | Electro/Pop | 11 530 vues
Tous les mêmes - Stromae

J'ai essayé de retranscrire au mieux ce que j'entendais
mais c'est pas forcément évident sur une musique électro
avec pas mal d'effets. Donc y'a ptetre qq approximations
mais dans l'ensemble ça sonne pas mal j'trouve !!:D

Amusez-vous bien !

Accords 

Em : 022000 
Am : 002210
Am/F# :20x210
B7 : x21202

Capo 1

Intro
-----

e|-------------------------------------------------------
B|-------------------------------------------------------
G|-0-----0-----5-5-4-2--2-4-0-----0----0-----0-----------
D|---4-2---4-2---------------------4-2---4-2---4--2-1----
A|-------------------------------------------------------
E|-------------------------------------------------------


Riff principal qu'on joue tout le long de la chanson
--------------

   Em        Am        Am/F#      B7
e|----------------------------------2-------
B|----0----------1--------1---------0-------
G|----0-0--------2-2------2-2-------2-------
D|-------------2--------------------1-------
A|-----------0--------------------2-2-------
E|-0--------------------2-----------x-------


Couplet 1
---------

Em       Am                        Am/F#   B7
Vous les hommes vous êtes tous les mêmes
           Em
Macho mais cheap
         Am             Am/F#   B7
Bande de mauviettes infidèles
        Em
Si prévisibles
       Am             Am/F#   B7
Non je ne suis pas certaine
         Em
Que tu l'mérites
            Am                    Am/F#   B7
Vous avez de la chance qu'on vous aime 
        Em
Dis-moi merci


Refrain 1
---------

       Am           Am/F#             B7                Em
Rendez-vous, rendez-vous, rendez-vous au prochain règlement
       Am           Am/F#             B7                      Em              
Rendez-vous, rendez-vous, rendez-vous sûrement aux prochaines règles

      
Partie instrumentale qu'on peut jouer après le refrain :)
---------------------


e|---0---------0----------0----2---
B|-0---0--1--1---1------1---4------
G|------------------2-2------------    A jouer 2 fois 
D|---------------------------------  après le 1ere refrain
A|---------------------------------
E|---------------------------------

Couplet 2
---------

Em     Am               Am/F#
Cette fois c'était la dernière
   B7                           Em
Tu peux croire que c'est qu'une crise
           Am                   Am/F#
Matte une dernière fois mon derrière
   B7                  Em
Il est à côté de mes valises
         Am                 Am/F#
Tu diras au revoir à ta mère
    B7         Em
Elle qui t'idéalise
               Am                Am/F#
Tu n'vois même pas tout c'que tu perds
         B7               Em
Avec une autre, ce serait pire
            Am              Am/F#          B7      
Quoi toi aussi tu veux finir maintenant ?
                    Em
C'est l'monde à l'envers
            Am               Am/f#           B7
Moi je l'disais pour t'faire réagir, seulement
           Em
Toi t'y pensais

Refrain 2
---------

       Am           Am/F#             B7                Em
Rendez-vous, rendez-vous, rendez-vous au prochain règlement
       Am           Am/F#             B7                      Em              
Rendez-vous, rendez-vous, rendez-vous sûrement aux prochaines règles


Partie instrumentale qu'on peut jouer après le refrain :)
---------------------

e|---0---------0----------0----2---
B|-0---0--1--1---1------1---4------
G|------------------2-2------------     A jouer 4 fois
D|---------------------------------  après le 2eme refrain
A|---------------------------------
E|---------------------------------

Em          Am              Am/F#
Facile à dire, je suis gnan-gnan
              B7               Em
et que j'aime trop les bla-bla-bla
             Am              Am/F#
Mais non non non, c'est important
           B7                Em
Ce que t'appelles les ragnagnas
           Am              Am/F#
Tu sais la vie c'est des enfants
              B7                       Em
Mais comme toujours c'est pas l'bon moment
                Am                  Am/F#
Ah oui pour les faire, là, tu es présent,
                 B7                Em
Mais pour les élever y'aura des absents

------------------------------------------------
Pour la partie qui va de :

"Lorsque je n'serais..." à "moi ou elle, c'est jamais bon",

vous pouvez continuez à jouer le riff avec les accords 
Em - Am - Am/F# - B7

et si vous avez une 2eme guitare 
voici la mélodie qu'on entend :
-------------------------------------------------

Riff mélodique

e||----3-0---2----------0-3-2------3--
B||--0-----3---3--1-1-0--------4-0----
G||*----------------------------------
D||*----------------------------------
A||-----------------------------------
E||-----------------------------------

e|---3-0---2----------0--------2-0----||
B|-0-----3---3--1-1-0---1-0--4--------||
G|-----------------------------------*|| Faire le riff
D|-----------------------------------*||     2 fois
A|------------------------------------|| 
E|------------------------------------||

Lorsque je n'serai plus belle,
Ou du moins au naturel,
Arrête je sais que tu mens,
Il n'y a que Kate Moss qui est éternelle

Moche ou belle, c'est jamais bon
Bête ou belle, c'est jamais bon
Belle ou moi, c'est jamais bon
Moi ou elle, c'est jamais bon


Refrain 3
---------

       Am           Am/F#             B7                Em
Rendez-vous, rendez-vous, rendez-vous au prochain règlement
       Am           Am/F#             B7                      Em              
Rendez-vous, rendez-vous, rendez-vous sûrement aux prochaines règles



Partie instrumentale qu'on peut jouer après le refrain :)
---------------------

e|---0---------0----------0----2---
B|-0---0--1--1---1------1---4------
G|------------------2-2------------  A jouer 4 fois après
D|---------------------------------   le 3eme refrain
A|---------------------------------
E|---------------------------------

Solo ( a 2min37 )
-----------------

e|-----------------------------------
B|-0---0--0h1p0----0----0-1p0--4s5---
G|---2-----------2----2--------------
D|-----------------------------------
A|-----------------------------------
E|-----------------------------------


e|---------------------------------------
B|-4-5s7--5s4-5--------------------------
G|--------------5-4-5-4s2--4-2-0---------
D|--------------------------------4-2----
A|---------------------------------------
E|---------------------------------------


Finir avec les même accords : Em - Am - Am/F# - B7 ou alors le
riff trompette qu'on joue après le refrain, ou les 2 si vous êtes
à plusieurs :DDD.

Tous les mêmes, tous les mêmes, tous les mêmes, et y'en a marre
Tous les mêmes, tous les mêmes, tous les mêmes, et y'en a marre
Tous les mêmes, tous les mêmes, tous les mêmes,
et y'en a marre
Tous les mêmes, tous les mêmes, tous les mêmes



Laisser un commentaire