Tous les tutos

Stromae - Formidable

Posté le 7 septembre 2013 | Electro/Pop | 12 358 vues
Formidable - Stromae

Intro

(Mélodie joué au "piano")

e -----5----------
B --------7--8---5
G-----------------
D-----------------
A-----------------
E-----------------

Intro solo

(Mélodie joué aux "cuivres"
J'ai pas expliqué cette partie dans
la vidéo. Ca sonne pas mal à l'électrique ! ;)


e----3--5-7--8--------------------
B-----------------8------7-------5
G---------------------------------
D---------------------------------
A---------------------------------
E---------------------------------

Solo :

A jouer 4 fois par refrain

e------------------------5S7---
B----s8-8--10--10--8--8--------
G------------------------------
D------------------------------
A------------------------------
E------------------------------

e------------------------------
B----s8-8--10--10--8--8--8s10--
G------------------------------
D------------------------------
A------------------------------
E------------------------------

e------------------------5S7---
B----s8-8--10--10--8--8--------
G------------------------------
D------------------------------
A------------------------------
E------------------------------

e------------------------------
B----s8-8--10--10--8--8----5s7-
G------------------------------
D------------------------------
A------------------------------
E------------------------------


Stromae - Formidable


Ce sont les mêmes accords qui tournent pour toute la chanson. 
Il faut attrapper la rythmique notamment pour combiner guitare/chant
mais quand on l'a chopée c'est bon.

Mim  Re  Sol Do
Lam  Em  Si  Mim

REFRAIN:

Mim           Re      Sol         Do
  Formidable, fooormidable
              Lam                   Em   Si                   Mim
Tu étais formidable, j'étais fort minable    Nous étions formidables
Mim    Re    Sol     Do
       Formidable
               Lam                  Em   Si                   Mim
Tu étais formidable, j'étais fort minable     Nous étions formidables


COUPLET:

Mim       Re                  Sol                          Do
    Oh bébé, oups : mademoiselle  Je vais pas vous draguer,
             Lam                    Em                   Si   
Promis, juré     J'suis célibataire    Depuis hier putain    
                          Mim
J'peux pas faire d'enfant et bon c'est pas...
           Mim              Re                    Sol                     Do
Eh reviens!  5 minutes quoi   j't'ai pas insultée,   J'suis poli, courtois
                     Lam                             Em 
Et un peu fort bourré    Mais pour les mecs comme moi 
                           Si   
Vous avez autre chose à faire,
                    Mim
Vous m'auriez vu hier     J'étais


Formidable, fooormidable 
Tu étais formidable, j'étais fort minable
Nous étions formidables
Formidable
Tu étais formidable, j'étais fort minable
Nous étions formidables

Oh tu t'es regardé, tu t'crois beau
Parce que tu t'es marié,
Mais c'est qu'un anneau mec, t'emballes pas,
Elle va t'larguer comme elles le font chaque fois
Et puis l'autre fille tu lui en a parlé?
Si tu veux je lui dis comme ça c'est réglé
Et au petit aussi, enfin si vous en avez
Attends 3 ans, 7 ans et là vous verrez
Si c'est

Formidable, fooormidable
Tu étais formidable, j'étais fort minable
Nous étions formidables
Formidable
Tu étais formidable, j'étais fort minable
Nous étions formidables

Eh petite Oh pardon! petit
Tu sais dans la vie y'a ni méchant ni gentil
Si maman est chiante c'est qu'elle a peur d'être mamie
Si papa trompe maman c'est parce que maman vieillit, tiens!
Pourquoi t'es tout rouge? Beh reviens gamin
Et qu'est-ce que vous avez tous? A me regarder comme un singe, vous
Ah oui vous êtes saints vous
Bande de macaques !
Donnez moi un bébé singe, il sera

Formidable, fooormidable
Tu étais formidable, j'étais fort minable
Nous étions formidables
Formidable
Tu étais formidable, j'étais fort minable
Nous étions formidables

Fooormidable
Tu étais formidable, j'étais fort minable
Nous étions formidables
Formidable
Tu étais formidable, j'étais fort minable
Nous étions formidables



Laisser un commentaire